» » »

Folds In Your Hands Bass tabs (ver.1)

Artists:  A B C D E F G H I J K L M N O P Q R S T U V W X Y Z # 

Folds In Your Hands Bass tabs (ver.1)

Passion Pit
Rating:
5/5 (1 vote)

Hard to play? Try these video lessons and learn fast.
                Verse 0.16
G|--5----5--------------|
D|------------3--3-5--5-|
A|-3----3---------------|
E|----------------------|

Chorus 0.45
G|--------------------------------|
D|--------------------------------|
A|--------3~------1~--------------|
E|4~------------------------------|X2

G|--------------------------------|
D|--------------------------------|
A|----------------1~--------------|
E|3~------4~----------------------|X2

EPIC BASSLINE!!!!!!!! 1.23
G|-------------------------------------------|
D|--58---------58---------58---------531-31--|
A|36----3-6--36----3-6--36---3-6--356------3-|
E|-------------------------------------------|

Verse 2 1.38
Its really low and done on a synth but it just plays C,F,G
Heres a bass version just incase :)
G|----------------------------------------|
D|------------3--3-3-3--3-3-5--5-5-5--5-5-|
A|3-3-3-3-3-3-----------------------------|
E|----------------------------------------|

Epic Bassline until end :)
            
Hard to play? Try these video lessons and learn fast. | Correct




comments powered by Disqus
↑ Back to top | Tablatures and chords are parodies/interpretations of the original songs. You may use it for private study, scholarship, research or language learning purposes only