» » »

Cater 2 U Tabs (ver.2)

Artists:  A B C D E F G H I J K L M N O P Q R S T U V W X Y Z # 

Cater 2 U Tabs (ver.2)

Passion
Rating:
0/5 (0 votes)

Hard to play? Try these video lessons and learn fast.
                -------------------------------------------------------------------------------
                           Cater To You - Passion
-------------------------------------------------------------------------------

Tuning: standard

e|-----------7----6---4-----------4/6---h8-------------------------6---------|
B|---------9------7---5---------6----------h8----------------------7---------|
G|-------8--------6---4-------4---------------6---------4---4------6---------|
D|-----9----------8---6----h7-------------------9---------3---3----8---------|
A|---7------------6---4--4------------------------6\4--------------6---------|
E|------------------------------------------------------4--------------------|

e|---7--7---7---7------6---4----------4/6---h8-----------------------6-------|
B|---9--6h9-6h9-6h9----7---5--------6---------h8---------------------7-------|
G|---8--8---8---8------6---4------4--------------6---------4---4-----6repeat-|
D|---9-----------------8---6----h7-----------------9---------3---3---8-------|
A|---7-----------------6---4--4----------------------6\4-------------6-------|
E|---------------------------------------------------------4-----------------|

ChEeRs EnJoY

| /  slide up
| \  slide down
| h  hammer-on
| p  pull-off
| ~  vibrato
| +  harmonic
| x  Mute note
===============================================================================
            
Hard to play? Try these video lessons and learn fast. | Correct




comments powered by Disqus
↑ Back to top | Tablatures and chords are parodies/interpretations of the original songs. You may use it for private study, scholarship, research or language learning purposes only