» » »

Passion, Already In Love Tabs (ver.1)

Artists:  A B C D E F G H I J K L M N O P Q R S T U V W X Y Z # 

Already In Love Tabs (ver.1)

Passion Tabs
 Rating:
3.7/5 (6 votes)
Already In Love lessons Tabs too difficult? Try these video lessons and learn fast
1
                TUNING: Standard Tuning
 6 5 4 3 2 1  (String Number)
|E|A|D|G|B|e| (Low to high)
-----------------------------------------------------------------------------
NOTE: THIS TAB IS BASED UPON THE VIDEO VERSION OF ALREADY IN LOVE, TO PLAY
THE AUDIO VERSION SIMPLY PLAY A HALF STEP DOWN. REPEAT, SIMPLY PLAY A HALF
STEP DOWN. THAT IS ALL.
----------------------------------------------------------------------------- 
DIFFICULTY LEVEL: Medium
-----------------------------------------------------------------------------
CHORDS USED: (557565)  (5x555x)  (4x444x)  (3x333x) etc...
-----------------------------------------------------------------------------

INTRO/VERSE/CHORUS/PRETTY MUCH EVERYTHING: These are just the barebones of
the song, you're free to mix it up to your discression.

Riff 1
e|---------------x-----------x--------------------|
B|--------5h6p5--x-5---4-3-3-x-3-3----------------|
G|------5--------x-5-5-4-3-3-x-3-3----3h5p3-------|
D|----7----------x-5-5-4-3-3-x-3-3----------------|
A|--5------------x-----------x--------------------|
E|---------------x-5-5-4-3-3-x-3-3--3-------3-----|

Riff 2
e|--------5-x-----------x--------3h5p3-------|
B|--------6-x-5-5-2-3-3-x-3-3--3-------3-----|
G|------5---x-5-5-2-3-3-x-3-3----------------|
D|----7-----x-5-5-2-3-3-x-3-3----------------|
A|--5-------x-----------x--------------------|
E|----------x-5-5-2-3-3-x-3-3----------------|

Riff 3
e|--------5-x-----------x--------------------|
B|--------6-x-5-5-4-3-3-x-3-3----------------|
G|------5---x-5-5-4-3-3-x-3-3----3h5p3-------|
D|----7-----x-5-5-4-3-3-x-3-3--3-------3-----|
A|--5-------x-----------x--------------------|
E|----------x-5-5-4-3-3-x-3-3----------------|

Riff 4 - / \ means to slide.
e|--------5-x----------x--8/10-10----10\8-8--|
B|--------6-x-5-5-4-3--x--8/10----10-10\8-8--|
G|------5---x-5-5-4-3--x---------------------|
D|----7-----x-5-5-4-3--x---------------------|
A|--5-------x----------x---------------------|
E|----------x-5-5-4-3--x---------------------|

----------------------------------------------------------------------------
(x= mute/slap) (/= slide up/down) (h= hammer on) (p= pull off) (~= let ring)
            
Submit corrections

comments powered by Disqus
↑ Back to top | Passion Tabs for Already In Love. Lyrics for acoustic guitar and electric guitar. 1 Tablatures and chords are parodies/interpretations of the original songs. You may use it for private study, scholarship, research or language learning purposes only