» » »

Passenger, The Wrong Direction Tabs (ver.1)

Artists:  A B C D E F G H I J K L M N O P Q R S T U V W X Y Z # 

The Wrong Direction Tabs (ver.1)

Passenger Tabs
 Rating:
4.3/5 (6 votes)
The Wrong Direction lessons Tabs too difficult? Try these video lessons and learn fast
                





Capo on the 5th fret





Intro Riff:

                F         C         G        Am7

e|-------------------------------------------------|
B|--3/5--3/5/3p0--1--1-1-1--1--3/5/3--3--3--1--1---|
G|--2/4--2/4/2p0--2--0h2p0--0--2/4/2--0--0--0--0---|
D|----------------3--3-3-3--2------------------2---|
A|--------------------------3------------------0---|
E|------------------------------------3--3---------|



                F         C         G

e|------------------------------------------------|
B|--3/5--3/5/3p0--1--1-1-1--1--3/5/3--3--1--1--0--|
G|--2/4--2/4/2p0--2--0h2p0--0--2/4/2--0--0--0--0--|
D|----------------3--3-3-3--2---------------------|
A|--------------------------3---------------------|
E|------------------------------------3--3--3--3--|



Vers:

             F                                  C
When I was a kid, the things I did, were hidden under the grid
          G                                 Am
young and naiv, i never believed love could be so well-hid
       F                                    C
with regret I'm willing to bet they say the older you get
      G                           Am
gets harder to forgive and harder to forget
    F                            C
it gets under your shirt like a dagger at work
    G                                Am
the first cut is the deepest but the rest still flippin hurt
    F
you build your heart of plastic
       C
you're cynical and sarcastic
    G
and end up in a corner on your own



Chorus:

        F                              C
cause I love to feel loved but i can't stand the rejection
  G                         Am
i hide behind my jokes as a form of protection
   F                            C
i thought i was close but under further inspection
   G                              Am
it seems i've been running in the wrong direction



Intro-Riff



Vers:

same as the first one; F C G Am all over but stop/continue with the G 
'the old man' and 'butterflies'



so what's the point of getting your hopes up
when all you ever getis  chocked up
when your coked up and remember the reason why you broke up
you call her in the morning when you're coming down and falling
like an old man in the side of the road

cause when your apart you don't a-mingle
when you're together you want to be single
ever the chase, the taste, the kiss, the bliss that made your heart tingle
how much greener the grass is, with your rose tinted glasses
but the butterflies flutter by and leave us on our asses




Chorus:

        F                              C
cause I love to feel loved but i can't stand the rejection
  G                         Am
i hide behind my jokes as a form of protection
   F                            C
i thought i was close but under further inspection
   G                              Am
it seems i've been running in the wrong direction




Bridge:

       F                          C
there's fish in the sea for me to make a selection
         G                      Am
I'd jump in if it wasn't for my ear infection
      F                          C
cause all i want to do is try to make a connection
   G                              Am
it seems i've been running in the wrong direction


SOLO:




e|---------------------------------------------|
B|--------6--8--10--10--10--10p8--6--8/10--8---|
G|--5--7---------------------------------------|
D|---------------------------------------------|
A|---------------------------------------------|
E|---------------------------------------------|


e|---------------------------------------|
B|-----6---8--10--10--10---8--6--5h6-----|
G|--7---------------------------------7--|
D|---------------------------------------|
A|---------------------------------------|
E|---------------------------------------|


e|-----------------------------------------|
B|---------------------6--8--10--11p10--8--|
G|--5--7--5---------7----------------------|
D|----------7h8p7--------------------------|
A|-----------------------------------------|
E|-----------------------------------------|



        F                              C
cause I love to feel loved but i can't stand the rejection
  G                         Am
i hide behind my jokes as a form of protection
   F                            C
i thought i was close but under further inspection
   G                              Am
it seems i've been running in the wrong direction


        F                              C
cause I love to feel loved but i can't stand the rejection
  G                         Am
i hide behind my jokes as a form of protection
   F                            C
i thought i was close but under further inspection
   G                              Am
it seems i've been running in the wrong direction




etc....
            
Submit corrections

comments powered by Disqus
↑ Back to top | Passenger Tabs for The Wrong Direction. Lyrics for acoustic guitar and electric guitar. Tablatures and chords are parodies/interpretations of the original songs. You may use it for private study, scholarship, research or language learning purposes only