» » »

Passenger, Brick Walls Tabs (ver.1)

Artists:  A B C D E F G H I J K L M N O P Q R S T U V W X Y Z # 

Brick Walls Tabs (ver.1)

Passenger Tabs
Rating:
0/5 (0 votes)
Brick Walls lessons Tabs too difficult? Try these video lessons and learn fast
                -------------------------------------------------------------------------------
-------------------------------------------------------------------------------

Tuning: Standard

This is the verse:
e|--5------3------2------2-----2-----2--2------0----2--2-----2-----2-------2-|
B|----3------3------3------3-----3--------3------3-------3-----3-----3-------|
G|------2------2------2------2-----2--------4--------------2-----2-----2-----|
D|--4------2------0------------------------------------0---------------------|
A|--------------------------------------5------0-----------------------------|
E|---------------------------------------------------------------------------|

e|--5------3------2------2------10-------9--------7---------7------7------7--|
B|----3------3------3------3-------------------------0--------0------0-------|
G|------2------2------2------2------7--------7----------7-------7------7-----|
D|---------2------0----------------------------------------------------------|
A|--4----------------------------0-------0--------0--------------------------|
E|---------------------------------------------------------------------------|

e|--5------3------2------2-----2-----2--2------0----2--2-----2-----2-------2-|
B|----3------3------3------3-----3--------3------3-------3-----3-----3-------|
G|------2------2------2------2-----2--------4--------------2-----2-----2-----|
D|--4------2------0------------------------------------0---------------------|
A|--------------------------------------5------0-----------------------------|
E|---------------------------------------------------------------------------|

Reprise and Chorus (where eventually strummed)
	Em				D					Fsharpm
e|--7-----7-----7-----7-----7----5-----7-----7-----7-----7-----7----9--------|
B|----8-----8-----8-----8-----8----7-----8-----8-----8-----8-----8----10-----|
G|------9-----9-----9-----9----------------9-----9-----9-----9---------------|
D|---------------------------------------------------------------------------|
A|--7-----------------------7----5-----7-----------------------7----9--------|
E|---------------------------------------------------------------------------|
	Bm
e|--2-----2-----2-----2-----2-----2---0-----0-----0-----0-----0-----0--------|
B|----3-----3-----3-----3-----3---------2-----2-----2-----2-----2------------|
G|------4-----4-----4-----4-----4---------2-----2-----2-----2-----2----------|
D|---------------------------------------------------------------------------|
A|--2---------------------------------0--------------------------------------|
E|---------------------------------------------------------------------------|

Repeat this for ‘We’re banging our heads against brick walls and the walls are hard and 
our heads are soft’ until back to opening:

e|--5------3------2------2-----2-----2--2------0----2--2-----2-----2-------2-|
B|----3------3------3------3-----3--------3------3-------3-----3-----3-------|
G|------2------2------2------2-----2--------4--------------2-----2-----2-----|
D|--4------2------0------------------------------------0---------------------|
A|--------------------------------------5------0-----------------------------|
E|---------------------------------------------------------------------------|











************************************

| /   slide up
| \   slide down
| h   hammer-on
| p   pull-off
| ~   vibrato
| +   harmonic
| x   Mute note
| b   Bend
| pb  Pre-bend
| br  Bend release
| pbr Pre-bend release
| brb Bend release bend

************************************
            

comments powered by Disqus
↑ Back to top | Passenger Tabs for Brick Walls. Lyrics for acoustic guitar and electric guitar. Tablatures and chords are parodies/interpretations of the original songs. You may use it for private study, scholarship, research or language learning purposes only