» » »

Passafire, You're Here Tabs (ver.1)

Artists:  A B C D E F G H I J K L M N O P Q R S T U V W X Y Z # 

You're Here Tabs (ver.1)

Passafire Tabs
 Rating:
4/5 (4 votes)
You're Here lessons Tabs too difficult? Try these video lessons and learn fast
1
                -------------------------------------------------------------------------------
                             You're Here- Passafire
-------------------------------------------------------------------------------

Tuning:standard


intro/verses:

   palm mute
e|------------------------------------------------------------|
B|------------------------------------------------------------|
G|------------------9-9-6-6-------------------9-9-6-6---------|
D|---4----4----4----7-7-7-7----4----4----4----7-7-7-7---------|
A|---5--5-5--5-5--5----------0-5--5-5--5-5--5-----------------|
E|------------------------------------------------------------|   


chorus:

     C#m  D   A      A   E   G#
e|----4---5---5------5---0---4---------------------|
B|----5---7---5------5---0---4---------------------|
G|----6---7---6------6---1---5---------------------|
D|----6---7---7------7---2---6---------------------|
A|----4---5---7------7---2---6--------x3-----------|
E|------------5------5---0---4---------------------|
  
     C#m  D   A      E  C#m  AM6/9
e|----4---5---5------7---4---0---------------------|
B|----5---7---5------9---5---0---------------------|
G|----6---7---6------9---6---6---------------------|
D|----6---7---7------9---6---6---------------------|
A|----4---5---7------7---4---x---------------------|
E|------------5--------------5---------------------|


breakdown:
              
e|---0--0-0-------------0--0-0--------------|
B|---6--6-6-------------6--6-6--------------|
G|---7--7-7-------------7--7-7--------------|
D|---7--7-7-------------7--7-7--------------|
A|---5--5-5----3-3-3-3--5--5-5----3-3-3-3---|
E|------------------------------------------|  x4
              pm                  pm


back into verse/intro thing and then to chorus
            
Submit corrections

comments powered by Disqus
↑ Back to top | Passafire Tabs for You're Here. Lyrics for acoustic guitar and electric guitar. 1 Tablatures and chords are parodies/interpretations of the original songs. You may use it for private study, scholarship, research or language learning purposes only