» » »

Passafire, The King Tabs (ver.1)

Artists:  A B C D E F G H I J K L M N O P Q R S T U V W X Y Z # 

The King Tabs (ver.1)

Passafire Tabs
Rating:
5/5 (2 votes)
The King lessons Tabs too difficult? Try these video lessons and learn fast
                -------------------------------------------------------------------------------
-------------------------------------------------------------------------------
Amazing song related to 'King Tubby' from the isalnd of jamica jamica.
Much more Passafire to come.
Please rate and enjoy!

Tuning:Standard

Intro
e|-----------------------------------------------------7---5-----------------|
B|---5---8------3-3--1--0~------3-3--1--0~-----10-10---8---6---5~------------|
G|---5---9------4-4--2--0~------4-4--2--0~-----10-10---9---7---5~------------|
D|---7---10-----5-5--3--2~------5-5--3--2~-----10-10---9---7---5~------------|
A|---7---10-----5-5--3--2~------5-5--3--2~-----8--8----7---5---3~------------|
E|---5---8------3-3--1--0~------3-3--1--0~-----------------------------------|
     Am  C      G    F  Em      G    F  Em     F       Em  Dm  C

Verse (Down UP Down)
e|---------------------------------------------------------------------------|
B|---5-5--5---8--8---8----3-3--3---1-1----5~---------------------------------|
G|---5-5--5---9--9---9----4-4--4---2-2----5~---------------------------------|
D|---7-7--7---10-10--10---5-5--5---3-3----5~---------------------------------|
A|---7-7--7---10-10--10---5-5--5---3-3----3~---------------------------------|
E|---5-5--5---8--8---8----3-3--3---1-1---------------------------------------|
     Am       C           G        F      C

Chorus
e|-------7-------2-----------------------------------------------------------|
B|---7---8---5---3-----------------------------------------------------------|
G|---7---9---6---4----(every chord played twice)-----------------------------|
D|---7---9---7---4-----------------------------------------------------------|
A|---5---7---7---2-----------------------------------------------------------|
E|-----------5---------------------------------------------------------------|
     D   Em  A   Bm

Breakdown
e|------------7--7-------------------------------------2--2--2--2------------|
B|---12--12---8--8---7--7--7--7----------3--3---0--0---3--3--3--3------------|
G|---12--12---9--9---7--7--7--7----------4--4---0--0---4--4--4--4------------|
D|---12--12---9--9---9--9--9--9----or----5--5---2--2---4--4--4--4------------|
A|---10--10---7--7---9--9--9--9----------5--5---2--2---2--2--2--2------------|
E|-------------------7--7--7--7----------3--3---0--0-------------------------|
     G        Em     Bm                  G      Em     Bm 

Order played:
Introx2
Versex4
Chorusx4
Introx1
Versex4
Chorusx4
Breakdownx4
Introx2
End on Am C

************************************

| /   slide up
| \   slide down
| h   hammer-on
| p   pull-off
| ~   vibrato
| +   harmonic
| x   Mute note
| b   Bend
| pb  Pre-bend
| br  Bend release
| pbr Pre-bend release
| brb Bend release bend

************************************
            

comments powered by Disqus
↑ Back to top | Passafire Tabs for The King. Lyrics for acoustic guitar and electric guitar. Tablatures and chords are parodies/interpretations of the original songs. You may use it for private study, scholarship, research or language learning purposes only