» » »

The Breeze Tabs (ver.1)

Artists:  A B C D E F G H I J K L M N O P Q R S T U V W X Y Z # 

The Breeze Tabs (ver.1)

Passafire
Rating:
0/5 (0 votes)

Hard to play? Try these video lessons and learn fast.
                Band: Passafire

Intro

(slide up and down the guitar on  the A or low E string)

Then...  

|--------------------------------------------|
|--------8-----8-----8-8-8-8-----------------|
|------6-7-7-----7-----7-7-7-6---7h8p7-------|
|8-8-8-6-5---5-----5---5-5-5-6-8-------8-----|
|8-8-8-4---------------------4-8---------8---|
|6-6-6-------------------------6-------------|


|----------------------------------|
|--------8-----8-----8-8-8-8-------|
|------6-7-7-----7-----7-7-7-6-----|
|8-8-8-6-5---5-----5---5-5-5-6-8---|
|8-8-8-4---------------------4-8---|
|6-6-6-------------------------6---|

|6-6-5------6-6-5------6-6-5------6-6-------3-|
|6-6-6-8p6--6-6-6-8p6--6-6-6-8p6--6-6---------|
|------8p7--------8p7--------8p7----------3---|
|---------------------------------------5-----|
|-------------------------------------6-------|
|---------------------------------------------|

Verse (repeat as necessary)

|6-6-5------6-6-5------6-6-5------6-6-------3-|
|6-6-6-8p6--6-6-6-8p6--6-6-6-8p6--6-6---------|
|------8p7--------8p7--------8p7----------3---|
|---------------------------------------5-----|
|-------------------------------------6-------|
|---------------------------------------------|






Pre-Chorus

|6-6-6-6-6-6-6-6----|
|7-7-7-7-6-6-6-6----|
|-------------------|
|-------------------| (Repeat as necessary)
|-------------------|
|-------------------|

Chorus (The guitar is very faint)

|----3----------------------------------------|
|-----------------7-----------6---------6-----|
|------3-------3-----3----------3---------3---|
|--5--------4---------------3---------3-------|
|6-----------------------5----------5---------|
|---------------------------------------------|

|----3------------------------------1-1--|
|-----------------7-----------6-----1-1--|
|------3-------3-----3----------3---2-2--|
|--5--------4---------------3-------3-3--|
|6-----------------------5----------3-3--|
|-----------------------------------1-1--|

Chorus Ver 2

|----------------------|
|--------8-----8-------|
|------6-7-7-----7-----|
|8-8-8-6-5---5-----5---| (Repeat as necessary)
|8-8-8-4---------------|
|6-6-6-----------------|

Order of Song: (What to play, when to play it)
Intro 
Verse
Pre-Chorus
Chorus
Verse
Pre-Chorus
Chorus
Verse 
Chorus Ver 2
Verse (This is the outro)
            
Hard to play? Try these video lessons and learn fast. | Correct




comments powered by Disqus
↑ Back to top | Tablatures and chords are parodies/interpretations of the original songs. You may use it for private study, scholarship, research or language learning purposes only