» » »

Leave The Lights On Tabs (ver.1)

Artists:  A B C D E F G H I J K L M N O P Q R S T U V W X Y Z # 

Leave The Lights On Tabs (ver.1)

Passafire
Rating:
4/5 (2 votes)

Hard to play? Try these video lessons and learn fast.
                Leave the Lights On
Passafire
Everyone On Everynight



Passafire is too great of a band to not have very many tabs on them
so im gonna start transcribing their songs best i can.
this is my second of their songs. be sure to check out my other tabs.


chords used in verse:
      C#m  G#m   A   B
e|-----4----4----5---7-----|
b|-----5----4----5---7-----|
G|-----6----4----6---8-----|
D|----------6----7---9-----|
A|-------------------------|
E|-------------------------|


intro:(these are all the parts, though not in the exact order, you should be able to 
them together yourselves)

e|-----------------------------------------------------------------------|
b|-----------------------------------------------------------------------|
G|----------4--4------------4--4-------------4--4------------4--4--------|
D|-------6-------7-6-----6-------7-6------6-------7-6-----6-------7-6----|
A|----4---------------4----------------4---------------4-----------------|
E|-----------------------------------------------------------------------|

e|-----------------------------|
b|-----------------------------|
G|-----------------------------|
D|--------9------9-----6-------|
A|----7-------6-----4------2---|
E|-----------------------------|


(up high harmony)
e|-----------------------------------------------------------------------|
b|----------7--7-----------7--7------------7--7-----------7--7-----------|
G|-------8-------9-8------------9-8-----8-------9-8------------9-8-------|
D|----6---------------6--6-----------6---------------6--6----------------|
A|-----------------------------------------------------------------------|
E|-----------------------------------------------------------------------|


verse:

C#m             G#m
 Bring it to the table
A               B
 All you're able to bring
C#m     G#m
 Forever stable
A                 B
 Don't you change a thing
C#m        G#m
 Remove the label
A             B
 Let it shout, let it sing
C#m             G#m
 Though it may be painful
A         B
 It's not going anywhere


pre-chorus:

      F#sus7  C#m   C#m   C#m
     e|-7-7---4-4---4-4---4-4--|
     b|-5-5---5-5---5-5---5-5--|
     G|-6-6---6-6---6-6---6-6--|
     D|------------------------|
     A|------------------------|
     E|------------------------| x4

 Might as well have, face of the clock
 Time is a block and we're building

 Shake off the dust, scr*pe of the rocks
 And help all of us sing

 Words of this song, sing em all night long
 Without ever stopping

 Leave all the lights on
 This is a fight song
 Forever rolling and rocking

chorus: (intro riffs)


verse:
C#m          G#m
 Do yourself a favor
A              B
 Take pride in what you got
C#m            G#m
 Thirty hours of labor
A                    B
 In a week is fine, in a day it's not
C#m             G#m
 Appreciate the flavor
A                        B
 That you inherit from the top
C#m           G#m
 Takes time to savor
A                 B
 The taste before it stops

pre-chorus:

      F#sus7  C#m   C#m   C#m
     e|-7-7---4-4---4-4---4-4--|
     b|-5-5---5-5---5-5---5-5--|
     G|-6-6---6-6---6-6---6-6--|
     D|------------------------|
     A|------------------------|
     E|------------------------| x4

It comes from within
When you begin

Not when you finish the race
Something you make

Not a mistake
Something you cannot erase

Carry it through
It stays with you
Until you procreate

You give it to them
Starts from the stem
Forever rolling and rocking

chorus: (intro riffs)


bridge: (open position)  E  A  E  Amaj7  x4

(palm muted)
e|-----------------------------------------------------------|
B|-----------------------------------(x3)--------------------|
G|---9-9-8-8-------------8-8-9-9-8-8--------11--13-----------|
D|-----------9-9-6-6-9-9-------------------------------------|
A|-----------------------------------------------------------|
E|-----------------------------------------------------------|

e|-----12-11----------11-12-11---12-11----------11-12-11---12-11----------11-14-16--18b-16--|
b|-----------12----12------------------12----12------------------12----12-------------------|
G|--------------13------------------------13------------------------13----------------------|
D|------------------------------------------------------------------------------------------|
A|------------------------------------------------------------------------------------------|
E|------------------------------------------------------------------------------------------|

outro:

e|--------------------------------------------------------------------|
b|------7--7----------7--7-----------7--7-----------------------------|
G|---6-------9-8---6-------9-8---6--------9-8-------------------------|
D|---6-------------6-------------6------------------9----9----6-------|
A|---4-------------4-------------4---------------7----6----4----2-----|
E|---4-------------4-------------4------------------------------------|
            
Hard to play? Try these video lessons and learn fast. | Correct




comments powered by Disqus
↑ Back to top | Tablatures and chords are parodies/interpretations of the original songs. You may use it for private study, scholarship, research or language learning purposes only