» » »

Laquiji Tabs (ver.1)

Artists:  A B C D E F G H I J K L M N O P Q R S T U V W X Y Z # 

Laquiji Tabs (ver.1)

Passafire
Rating:
0/5 (0 votes)

Hard to play? Try these video lessons and learn fast.
                Band: Passafire


Intro/Solo

|--------------------|
|-----9--------------|
|7-8-----7-8---------|
|------------9-------|
|--------------------|
|--------------------|

|-------------------------|
|-------------------------|
|8------------------------|
|--11p9----9h11p9---------|
|-------11--------9-9h11--|
|-------------------------|

|-----------------|
|--------11-12----|
|-----------------|
|9-11-13----------|
|-----------------|
|-----------------|

|11----------------16(/14)-------11----------14-14-|
|---14p12----12-14---------12-14----14-12-11-11-11-|
|---------13---------------------------------------|
|--------------------------------------------------|
|--------------------------------------------------|
|--------------------------------------------------|
|--------------------------------------------------|

|12-11--------------------------------|
|------14-12-14b16r14p12----14-12-----|
|------------------------13-------13/-|
|---------------------------------13/-|
|-------------------------------------|
|-------------------------------------|




Verse

|----------|
|9-9-12-12-|
|8-8-11-11-|
|----------|
|----------|
|----------|

*This might be the bass but I can never tell with all the effects so here’s the tab:

|--------------------------|
|--------------------------|
|----------------------4-3-|
|--------2-1-2-4-4-4-4-----|
|--------------------------|
|4-4-4-4-------------------|

Chorus

Pick or strum these chords

|7----5---7----9---|
|7----5---9---11---|
|8----6---9---11---|
|9----7---9---11---|
|9----7---7----9---|
|7----5---7----9---|

Outro

|----------|
|9-9-12-12-|
|8-8-11-11-|
|----------| (repeat as necessary)
|----------|
|----------|

|2----4---|
|2----4---|
|3----4---|
|4----6---|
|4----6---|
|2----4---|
            
Hard to play? Try these video lessons and learn fast. | Correct




comments powered by Disqus
↑ Back to top | Tablatures and chords are parodies/interpretations of the original songs. You may use it for private study, scholarship, research or language learning purposes only