» » »

Passafire, Kilo Tabs (ver.1)

Artists:  A B C D E F G H I J K L M N O P Q R S T U V W X Y Z # 

Kilo Tabs (ver.1)

Passafire Tabs
 Rating:
4.2/5 (5 votes)
Kilo lessons Tabs too difficult? Try these video lessons and learn fast
                Band: Passafire

Intro

Guitar 1 (Repeat as necessary)

|----------------------------0-----0-----0-----0---|
|---1-----1-----1-----1----------------------------|
|----------------------------0-----0-----0-----0---|
|---2-----2-----2-----2---2-----2-----2-----2------|
|3-----3-----3-----3-------------------------------|
|--------------------------------------------------|

|-------------------------------------------------|
|----------------------------3-----3-----3-----3--|
|---3-----3-----3-----3---------------------------|
|---0-----0-----0-----0------3-----3---—-3-----3--|
|1-----1-----1-----1------5-----5-----5-----5-----|
|-------------------------------------------------|

Guitar 2 (Repeat as necessary) 

|8--------8-7-----7-----10---------------------------|
|8-8----------8-----8---10----------11-10-------10---|
|----9----------9-----9----10-------------10---------|
|------10---------------------12-12----------12------|
|----------------------------------------------------|
|----------------------------------------------------|

Verse (Repeat as necessary)

|8---8---7---7---------------------|
|8---8---8---8----------KEYBOARD---|
|----------------7---7-------------|
|----------------7---7-------------|
|----------------------------------|
|----------------------------------|

|8---8---7---7-----------10---10---|
|8---8---8---8------------7----7---|
|----------------7---7-------------|
|----------------7---7-------------|
|----------------------------------|
|----------------------------------|
Fill-In (Very Faint guitar between verse and chorus)

|------------------------|
|----6-----------6-------|
|--7---7-----7-----7-----|
|7-------7-----7-----7---|
|----------5-------------|
|------------------------|

Chorus (Repeat as necessary)

|5-5-5-5---5-5-5-5-|
|6-6-6-6---6-6-6-6-|
|6-6-6-6---7-7-7-7-|
|------------------| 
|------------------|
|------------------|

|--------------------|
|--------------------|
|------2-------------|
|----3---------3-2---|
|--4---------4-----4-|
|5---------5---------|


|---5~---5--~---5-5---|
|---6~---5h6~---6-6---|
|---7~---5h7~---7-7---|
|---7~---5h7~---7-7---|
|---5~---5--~---5-5---|
|---5~---5--~---5-5---|

Solo (During 2nd chorus)

|--------------------|
|--------------------|
|------2-------------|
|----3---------3-2---| (2x)
|--4---------4-----4-|
|5---------5---------|






|------------------------0-0-1-0-0-----------------------|
|------------2-2-3-2-2-3-----------3-2-2-3-2-2-2h3p2-----|
|2-2-3-2-2-3-----------------------------------------3---| 
|--------------------------------------------------------|
|--------------------------------------------------------|
|--------------------------------------------------------|

^^^ (2x) ^^^

|5-3---3-------|
|----6---6-----|
|----------6---|
|--------------| (Repeat as necessary)
|--------------|
|--------------|

|17-15----15---------|
|------18----18------|
|---------------18---|
|--------------------|(Repeat as necessary)
|--------------------|
|--------------------|

|17-18-17-15------------|
|------------18-17-15---|
|-----------------------|
|-----------------------|
|-----------------------|
|-----------------------|

|---5~---5--~---5-5---|
|---6~---5h6~---6-6---|
|---7~---5h7~---7-7---|
|---7~---5h7~---7-7---| (Repeat as necessary)
|---5~---5--~---5-5---|
|---5~---5--~---5-5---|


Bridge

|--------------|
|8---8---7---7-|
|9---9---9---9-|
|--------------| (repeat as necessary)
|--------------|
|--------------|

|--------|
|--------|
|--------|
|10-8----|
|10-8----|
|--------|


Outro/Bass Solo (Play Each chord as necessary)

|3---7---5---5---|
|5---8---6---6---|
|5---9---7---7---| (repeat as necessary)
|5---9---7---7---|
|3---7---5---5---|
|3---7---5---5---|
            
Submit corrections

comments powered by Disqus
↑ Back to top | Passafire Tabs for Kilo. Lyrics for acoustic guitar and electric guitar. Tablatures and chords are parodies/interpretations of the original songs. You may use it for private study, scholarship, research or language learning purposes only