» » »

Passafire, Divide Bass tabs (ver.1)

Artists:  A B C D E F G H I J K L M N O P Q R S T U V W X Y Z # 

Divide Bass tabs (ver.1)

Passafire Tabs
 Rating:
4/5 (4 votes)
Divide lessons Tabs too difficult? Try these video lessons and learn fast
1
                


Here's a quick and dirty tab for the main part of Divide.  I didn't tab the timing at all 
and I did this from memory so I'm sure I'm missing a few notes here and there.  Should 
you a general idea, though.


|----------------------7---7/10-9-7----------------------|
|-----3--------------7-----------------------------------|
|---3---1-1-1--1/5-5-----5-------------------------------|
|-1------------------------------------------------------|
                           ^ sounds like he pops these or something

|----------------------7---------------------------------|
|-----3--------------7-----------------------------------|
|---3---1-1-1--1/5-5-----5-------------------------------|
|-1------------------------13-12-10----------------------|
                           ^ He might actually playing this an octave
lower on his 6 string or something. You could play these notes on A but
I like how it sounds on E better.

|-------------------------------3------------------------|
|-----3--------------2------0-3---3----------------------|
|---3---1-1-1--1-0-3----0-1----------------0-3-0-3-3-4-5-|
|-1----------------------------------1-1-1---------------|
            
Submit corrections

comments powered by Disqus
↑ Back to top | Passafire Bass for Divide. Lyrics for acoustic guitar and electric guitar. 1 Tablatures and chords are parodies/interpretations of the original songs. You may use it for private study, scholarship, research or language learning purposes only