» » »

Passafire, Barcelona Tabs (ver.1)

Artists:  A B C D E F G H I J K L M N O P Q R S T U V W X Y Z # 

Barcelona Tabs (ver.1)

Passafire Tabs
 Rating:
4.2/5 (5 votes)
Barcelona lessons Tabs too difficult? Try these video lessons and learn fast
1
                Band: Passafire

Intro:

|4-x-x-x-4-x-x-x-2-x-x-x-2-x-x-x-4-x-x-x-4-x-x-x-4-x-x-x-4-|
|4-x-x-x-4-x-x-x-4-x-x-x-4-x-x-x-6-x-x-x-6-x-x-x-4-x-x-x-4-|
|4-x-x-x-4-x-x-x-2-x-x-x-2-x-x-x-4-x-x-x-4-x-x-x-4-x-x-x-4-|
|6-x-x-x-6-x-x-x-4-x-x-x-4-x-x-x-6-x-x-x-6-x-x-x-6-x-x-x-6-|
|6-x-x-x-6-x-x-x-2-x-x-x-2-x-x-x-4-x-x-x-4-x-x-x-6-x-x-x-6-|
|4-x-x-x-4-x-x-x-2-x-x-x-2-x-x-x-4-x-x-x-4-x-x-x-4-x-x-x-4-|


Chorus (Notes in parenthesis are optional)

*Guitar is in groups of 4 on the off-beats

|(7)-(7)-(7)-(7)-(7)-(7)-(7)-(7)-(4)-(4)-(4)-(4)-(4)-(4)-(4)-(4)-|
|-9---9---9---9---7---7---7---7---6---6---6---6---4---4---4---4--|
|-8---8---8---8---8---8---8---8---6---6---6---6---4---4---4---4--|
|----------------------------------------------------------------|
|----------------------------------------------------------------|
|----------------------------------------------------------------|

Verse (Notes in parenthesis are optional)

|(7)-(7)-(7)-(7)-(4)-(4)-(4)-(4)--|
|-9---9---7---7---6---6---4---4---|
|-8---8---8---8---6---6---4---4---|
|---------------------------------|
|---------------------------------|
|---------------------------------|

Breakdown/Keyboard Solo

|------------------------------------|
|------------------------------------|
|------------------------------------|
|------------7-6---------------------|
|-----7-6--6------6-6-6-6-6-7-6-4-6--|
|4--4--------------------------------|

Bridge

There’s no guitar in the bridge but you can use the chords from the verse

Outro:

|---------------------------------------------------|
|---------------------------------------------------|
|---------------------------------------------------|
|------------4--------------------------------------|
|----------6------------6-4-4-4-4-4-4-5-6-----------|
|4-4-4-4-4-----7-7-7-7--------------------4-4-4-4-2-|

|---------------------------------------------------|
|-------------------------------------------------4-|
|-------------------------------------------------3-|
|------------4------------------------------------4-|
|----------6------------6-4-4-4-4-4-4-5-6-----------|
|4-4-4-4-4-----7-7-7-7--------------------4-4-4-4---|
            
Submit corrections

comments powered by Disqus
↑ Back to top | Passafire Tabs for Barcelona. Lyrics for acoustic guitar and electric guitar. 1 Tablatures and chords are parodies/interpretations of the original songs. You may use it for private study, scholarship, research or language learning purposes only