» » »

Passafire, 49th Tabs (ver.1)

Artists:  A B C D E F G H I J K L M N O P Q R S T U V W X Y Z # 

49th Tabs (ver.1)

Passafire Tabs
Rating:
5/5 (2 votes)
49th lessons Tabs too difficult? Try these video lessons and learn fast
                -------------------------------------------------------------------------------
-------------------------------------------------------------------------------
My first tab up here. Passafire is THE sh*t. Please rate and enjoy


Tuning:Standard
Intro/Chorus
e|---------------------------------------------------------------------------|
B|---15--12--13--10/12--------9----------------------------------------------|
G|---16--12--14--10/12--12-or-8----------------------------------------------|
D|----------------------14--------------------------------------------------|
A|---------------------------------------------------------------------------|
E|---------------------------------------------------------------------------|
Bass Intro/Chorus
G|---------------------------------------------------------------------------|
D|---------------------------------------------------------------------------|
A|---14--10--12--8/10--7-----------------------------------------------------|
E|---------------------------------------------------------------------------|
Verse
e|---------------------------------------------------------------------------|
B|----------3---5------------6-------3---1-----------------------------------|
G|--4---2---3---5------------7---2---3---0-----------------------------------|
D|--5---3---3---5--(3 times)-7---3---3---2--(1 times)------------------------|
A|--5---3---1---3------------5---3---1---3-----------------------------------|
E|--3---1------------------------1-------------------------------------------|
Breakdown/Solo
e|---------------------------------------------------------------------------|
B|--8/10--10--10--8~----8/10--10--10--7~---(2 times)-------------------------|
G|--9/11--12--11--9~----9/11--12--11--7~-------------------------------------|
D|---------------------------------------------------------------------------|
A|---------------------------------------------------------------------------|
E|---------------------------------------------------------------------------|

e|---------------------------------------------------------------------------|     
B|----17~--17~--17~--17~----15~--15~--15~--15~---(3 times)-------------------|
G|--16---16---16---16-----16---16---16---16----------------------------------|
D|---------------------------------------------------------------------------|
A|---------------------------------------------------------------------------|
E|---------------------------------------------------------------------------|

e|---------------------------------------------------------------------------|
B|----17~--17~--17~--17~-----20~--20~--20~--20~------------------------------|
G|--16---16---16---16------19---19---19---19---------------------------------|
D|---------------------------------------------------------------------------|
A|---------------------------------------------------------------------------|
E|---------------------------------------------------------------------------|

************************************

| /   slide up
| \   slide down
| h   hammer-on
| p   pull-off
| ~   vibrato
| +   harmonic
| x   Mute note
| b   Bend
| pb  Pre-bend
| br  Bend release
| pbr Pre-bend release
| brb Bend release bend

************************************
            
Submit corrections

comments powered by Disqus
↑ Back to top | Passafire Tabs for 49th. Lyrics for acoustic guitar and electric guitar. Tablatures and chords are parodies/interpretations of the original songs. You may use it for private study, scholarship, research or language learning purposes only