» » »

Partisans Tabs (ver.1)

Artists:  A B C D E F G H I J K L M N O P Q R S T U V W X Y Z # 

Partisans Tabs (ver.1)

Partisans
Rating:
0/5 (0 votes)

Hard to play? Try these video lessons and learn fast.
                The Partisans were a prevelant punk / oi! band. This song is from the Police Story album.

-----------------------------------------------------------------
-----------------------------------------------------------------

Tuning: Standard

Intro and riff:
e|---------------------------------------------------------------|
B|---------------------------------------------------------------|
G|---------------------------------------------------------------|
D|--------------0------------------------------------------------|
A|-2-20---02-202-20--(play this 2 times)-------------------------|
E|-----2-2-------------------------------------------------------|

Verse:
e|---------------------------------------------------------------|
B|---------------------------------------------------------------|
G|-4442----2-4442----2-------------------------------------------|
D|-4442-4442-4442-4242-------------------------------------------|
A|-2220-4440-2220-4240-------------------------------------------|
E|------222-------202--------------------------------------------|

Chorus:
e|---------------------------------------------------------------|
B|---------------------------------------------------------------|
G|-4444444/9999999-----------------------------------------------|
D|-4444444/9999999--(3 times)-5/666-5/666-5/666-5/666------------|
A|-2222222/7777777------------5/666-5/666-5/666-5/666------------|
E|----------------------------3/444-3/444-3/444-3/444------------|

Sound/Riff Thing Used For Second Verse:
e|---------------------------------------------------------------|
B|-7-77(bend up one half step one these)-------------------------|
G|---------------------------------------------------------------|
D|---------------------------------------------------------------|
A|---------------------------------------------------------------|
E|---------------------------------------------------------------|

| / slide up
| \ slide down
| h hammer-on
| p pull-off
| ~ vibrato
| + harmonic
| x Mute note
            
Hard to play? Try these video lessons and learn fast. | Correct




comments powered by Disqus
↑ Back to top | Tablatures and chords are parodies/interpretations of the original songs. You may use it for private study, scholarship, research or language learning purposes only