» » »

No U Turns Tabs (ver.1)

Artists:  A B C D E F G H I J K L M N O P Q R S T U V W X Y Z # 

No U Turns Tabs (ver.1)

Partisans
Rating:
0/5 (0 votes)

Hard to play? Try these video lessons and learn fast.
                
MAIN
e-------------------------------------|
B---------8888888-------8-------------|
G-9999999-7777777-77777-7-9999999-----|
D-9999999-5555555-77777-5-9999999-----|
A-7777777---------55555---7777777-----|
E-------------------------------------| X4

e-------------------------------------|
B-------------------------------------|
G----------------------------9---9----|
D-8/999999-8/999999-8/999999-9-9-9-9--|
A-8/999999-8/999999-8/999999-7-9-7-9--|
E-6/777777-6/777777-6/777777---7---7--| X2

BRIDGE
e-------------------------------------------------------------------|
B-------------------------------------------------------------------|
G-----------------9999999------------------------9999999-6666666666-|
D-7777777-9999999-9999999-77777777777777-9999999-9999999-6666666666-|
A-7777777-9999999-7777777-77777777777777-9999999-7777777-4444444444-|
E-5555555-7777777---------55555555555555-7777777--------------------|

ENDING
e--------------------------------------------------|
B--------------------------------------------------|
G----------------------------9---9----9-----9------|
D-8/999999-8/999999-8/999999-9-9-9-9--9-9---9---9--|
A-8/999999-8/999999-8/999999-7-9-7-9--7-9---7---9--|
E-6/777777-6/777777-6/777777---7---7----7-------7--|
            
Hard to play? Try these video lessons and learn fast. | Correct




comments powered by Disqus
↑ Back to top | Tablatures and chords are parodies/interpretations of the original songs. You may use it for private study, scholarship, research or language learning purposes only