>
 >
Killing Machine

Killing Machine Guitar Tabs

Partisans - Killing Machine chords, tabs, tablatures, lyrics

Guitar lessons | Add/correct | Request | Top 50 tabs Artists:  A B C D E F G H I J K L M N O P Q R S T U V W X Y Z 0-9

Killing Machine Guitar Tabs – Partisans

CD, Sheet music, Poster

Do you like Killing Machine? Share with your friends now
Tabs
------------------------------ Guitar Tabs -------------------------------


The Partisans : killing machine


chorus
e|--------------------------------|
B|--------------------------------|
G|----------7--6------------------|
D|-9-999-77-7--6------------------|4x
A|-9-999-77-5--4------------------|
E|-7-777-55-----------------------|


Verse                  2x                            1x
e|-------------------------------------------|-----------------|
B|-------------------------------------------|-----------------|
G|-7-88-88-7-88-88---------------------------|-----------------|
D|-7-88-88-7-88-88--9-1010-1010-9-1010-1010--|-7-88-88-7-88-88-|3x
A|-5-66-66-5-66-66--9-1010-1010-9-1010-1010--|-7-88-88-7-88-88-|
E|------------------7--8-8--8-8-7--8-8--8-8--|-5-66-66-5-66-66-|

Repeat chorus and verse 1x

Solo:
e---------------------------------------------------------------------|
B|----------222~2222-3333~3333333~~~--------222222~22-333333~3333~~~--|
G|-44444~44~~---------------------444~4444~~--------------------------|
D|--------------------------------------------------------------------|
A|--------------------------------------------------------------------|
E|--------------------------------------------------------------------|

e|------------------------------------~-------------------------------|
B|-5555~555-777~7777~888888~8888-555~5555-7777~777-888~888888~8~~-----|
G|--------------------------------------------------------------------|
D|--------------------------------------------------------------------|
A|--------------------------------------------------------------------|
E|--------------------------------------------------------------------|

Repeat chorus and verse 1x

outro
e|--------------------------------------------------------------------|
B|--------------------------------------------------------------------|
G|-4444-6666-77777777-4444-6666-77777777-9999-11111111-12121212-------|
D|-4444-6666-77777777-4444-6666-77777777-9999-11111111-12121212-------|
A|-2222-4444-55555555-2222-4444-55555555-7777--9-9-9-9-10101010-------|
E|--------------------------------------------------------------------|

Lyric:

I signed on the line and threw away my life
They gave me a gun 
They gave me a knife
They taught me how to kill and they taught me how to hate
Killing Machine [4x]
Killing people I don't even know 
I was trained to give them that fatal blow
Just take orders I don't ask
Carry out my savage task
Killing Machine decides your fate 
Get out of my way before it's too late
Killing Machine [4x]





Comments


Popular Partisans tabs & chords
Overdose Bass Tabs
Police Story Bass Tabs
Arms Race Chords
Bastards In Blue Chords
No U Turns Chords
Arms Race Tabs
Blind Ambition Tabs
I Never Needed You Tabs
Partisans Tabs
Bastards In Blue Ukulele


Song lyrics



↑ Back to top | Tablatures and chords are parodies/interpretations of the original songs. You may use it for private study, scholarship, research or language learning purposes only
© 2014 AZChords.com Contact us | Privacy policy | DMCA | Add/correct tabs | Request tabs | Top 50 tabs