» » »

I Never Needed You Tabs (ver.1)

Artists:  A B C D E F G H I J K L M N O P Q R S T U V W X Y Z # 

I Never Needed You Tabs (ver.1)

Partisans
Rating:
0/5 (0 votes)

Hard to play? Try these video lessons and learn fast.
                -----------------------------------------------------------------
I Never Needed You - The Partisans
-----------------------------------------------------------------

Tuning:Standard

Verse:
e|---------------------------------------------------------------|
B|---------------------------------------------------------------|
G|--------------------------66666666-77777777--------------------|
D|-77777777-55-33333333-----66666666-77777777--(4 times)---------|
A|-77777777-55-33333333-02-33333333-55555555---------------------|
E|-55555555-33-11111111------------------------------------------|

Chorus:
e|---------------------------------------------------------------|
B|---------------------------------------------------------------|
G|---------------------------------------------------------------|
D|-77777777-5-33333333-5-77777777-5-3333-2222--------------------|
A|-77777777-5-33333333-5-77777777-5-3333-2222--------------------|
E|-55555555-3-11111111-3-55555555-3-1111-0000--------------------|

| / slide up
| \ slide down
| h hammer-on
| p pull-off
| ~ vibrato
| + harmonic
| x Mute note
            
Hard to play? Try these video lessons and learn fast. | Correct




comments powered by Disqus
↑ Back to top | Tablatures and chords are parodies/interpretations of the original songs. You may use it for private study, scholarship, research or language learning purposes only