» » »

Partisans, Arms Race Tabs (ver.1)

Artists:  A B C D E F G H I J K L M N O P Q R S T U V W X Y Z # 

Arms Race Tabs (ver.1)

Partisans Tabs
Rating:
0/5 (0 votes)
Arms Race lessons Tabs too difficult? Try these video lessons and learn fast
                -----------------------------------------------------------------
-----------------------------------------------------------------

Tuning:standard

(For the intro put on a very spread out flanger)
Intro And Verse:
e|---------------------------------------------------------------|
B|---------------------------------------------------------------|
G|-6-7-----------------------------------------------------------|
D|-6-7-1212-88-777777--------------------------------------------|
A|-4-5-1212-88-777777--------------------------------------------|
E|-----1010-66-555555--------------------------------------------|

Chorus:
e|---------------------------------------------------------------|
B|---------------------------------------------------------------|
G|--------------9------------------------------------------------|
D|-9------------9------------------------------------------------|
A|-9-(12 times)-7-(12 times)-------------------------------------|
E|-7-------------------------------------------------------------|

| / slide up
| \ slide down
| h hammer-on
| p pull-off
| ~ vibrato
| + harmonic
| x Mute note
            

comments powered by Disqus
↑ Back to top | Partisans Tabs for Arms Race. Lyrics for acoustic guitar and electric guitar. Tablatures and chords are parodies/interpretations of the original songs. You may use it for private study, scholarship, research or language learning purposes only