» » »

Partibrejkers, Molitva Tabs (ver.1)

Artists:  A B C D E F G H I J K L M N O P Q R S T U V W X Y Z # 

Molitva Tabs (ver.1)

Partibrejkers Tabs
 Rating:
4/5 (4 votes)
Molitva lessons Tabs too difficult? Try these video lessons and learn fast
1
                
  Uvod:
E|----------------|----------------|
H|----------------|0h1-------------|
G|----------0-2---|0h2-------------|
D|------0-2---20--|0h2-------------|
A|--0-3---------3-|0---------------|
E|----------------|----------------|

  Kraj uvoda: Dsus2, Am7

  Strofa:
            Am7
Ti mozes da spavas
          Dsus2
Ceo dan i noc
Ti mozes da sanjas
Da ces obojiti noc
Sunce plovi po nebu
I crta svoj krug
Ljudi zive pod zemljom
Vlada ocaj i muk

  Refren:
G             Dsus2
Boze, oprosti nam
Am7                  Dsus2
Pruzi ruku i pomiluj nas
G               Dsus2
Ovo je moja molitva
            Am7
Ne zaboravi nas

Tu je bio grad
Sad je pustinja
Tu su ziveli ljudi
Bezbroj sudbina

  Zavrsna tema:
  Am7              Am7              Dsus2            Dsus2
E|----------------|-/3-3-1-1-0-0-3-|1---------------|----------------|
H|----------------|-/5-5-3-3-1-1-5-|3---------------|----------------|
G|----------------|----------------|----------------|----------------|
D|----------------|----------------|----------------|----------------|
A|----------------|----------------|----------------|----------------|
E|----------------|----------------|----------------|----------------|

  Korisceni akordi:
Am7  -X02213
Dsus2-XX0230
G    -320003
            
Submit corrections

comments powered by Disqus
↑ Back to top | Partibrejkers Tabs for Molitva. Lyrics for acoustic guitar and electric guitar. 1 Tablatures and chords are parodies/interpretations of the original songs. You may use it for private study, scholarship, research or language learning purposes only