» » »

Partibrejkers, Meseceva Kci Tabs (ver.1)

Artists:  A B C D E F G H I J K L M N O P Q R S T U V W X Y Z # 

Meseceva Kci Tabs (ver.1)

Partibrejkers Tabs
 Rating:
4/5 (4 votes)
Meseceva Kci lessons Tabs too difficult? Try these video lessons and learn fast
1
                partibrejkers
meseceva kci



Intro and Verse                                                    
E||------------------------------------0--0--0--0--0---|
B||---------3-----------3--------3-----3--3--3--3--3---|
G||------2-----------0--------0-----0--0--0--0--0--0---|
D||---0--------------------------------2--2--2--2--2---|
A||------------0--2--------1-----------3--3--3--3--3---|
E||----------------------------------------------------|
      Jos uvek zivi tamo   gore

gde su joj zvezde prve komsije
i vise nikog nema pored nje
svoj zivot provodi sama



Meseceva kci, zacarana
spava pod senkom uspomena
mnoge godine vec prosle su 
jos samo prica seca na nju


chorus
|-----------------------------------------|
|-----------------------------------------|
|-----------------------------------------|
|-7-7-x-x-x-x-5-5-5-5-x-x-5-5-x-3-3-3-0/2-|
|-5-5-x-x-x-x-3-3-3-3-x-x-2-2-x-1-1-1-0/2-|
|-----------------------------------------|


S ortacima sedim i ispijam piva
i kao da me nista nije briga
a dao bi sve sto imam, da znam


|----------------------------------3--3-1-|
|----------------------------------0--0-0-|
|----------------------------------0--0-0-|
|----------------------------------0--0-0-|
|-0-0----0-0-0----0-0-0---0-0-0----2--2-2-|
|---------------------------------3--3--3-|
      ^let ring

da li sam joj potreban 3x         meseceva kci


here is part of solo you can improvise 
|----------------------------*...----------------------------
|----------------------------*...----------------------------
|---------------/9-7-7-7-7-7-*...---------------/9-7-7-7-7-7-
|---------0-----/7-7-7-7-7-7-*...-2-0-----------/7-7-7-7-7-7-
|-2-0-2-0---0-2--------------*...-----2-0-2-0-2--------------
|----------------------------*...----------------------------
                            ^play it 4x 

                   and so on
--------------------|
--------------------|
-9-7----------------|
-----9--9-7-9-7-----|
----------------9-7-|
--------------------|

finish solo with 2x of *


:)
            
Submit corrections

comments powered by Disqus
↑ Back to top | Partibrejkers Tabs for Meseceva Kci. Lyrics for acoustic guitar and electric guitar. 1 Tablatures and chords are parodies/interpretations of the original songs. You may use it for private study, scholarship, research or language learning purposes only