>
 >
The Girl At The Video Game Store 2

The Girl At The Video Game Store 2 Guitar Tabs

Parry Gripp - The Girl At The Video Game Store 2 chords, tabs, tablatures, lyrics

Guitar lessons | Add/correct | Request | Top 50 tabs Artists:  A B C D E F G H I J K L M N O P Q R S T U V W X Y Z 0-9

The Girl At The Video Game Store 2 Guitar Tabs – Parry Gripp

CD, Sheet music, Poster

Do you like The Girl At The Video Game Store 2? Share with your friends now
Bass TabsChordsChords v2Chords v3TabsTabs v2Tabs v3Ukulele
Intro:
     G      D/F#       Em
e|-------|-------|-------------|
B|-------|-------|-------0-----|
G|-----0-|-----0-|-----0---0---|
D|---0---|---0---|---2-------2-|
A|-------|-------|-------------|
E|-3-----|-2-----|-0-----------|

     G      D/F#              Em
e|-------|-------|--------------------------|
B|-------|-------|-------0------------0-----|
G|-----0-|-----0-|-----0---0--------0---0---|
D|---0---|---0---|---2-------2----2-------2-|
A|-------|-------|--------------------------|
E|-3-----|-2-----|-0------------0-----------|



First Verse (Chords finger picking) 
   G	            D	         Em	          Bm	      C   	  	  
e|------------------2---------------------------------------------------------
B|------3---------3--3-----------0--------------3--------------1-------------|
G|-----0-0------2------2-------0---0----------4---4----------0---0-----------|
D|----0---0---0--------------2-------2------4-------3------2-------2---------|
A|----------------------------------------2--------------3-------------------|
E|--3---------------------0--------------------------------------------------|

     G	 		        D
e|----------------3--------------2-------------------------------------------|
B|-------3--------3------------3---3-----------------------------------------|
G|------0-0------0-0----------2------2---------------------------------------| 
D|-----0---0----0---0--------------------------------------------------------|	    
A|---------------------------------------------------------------------------|
E|--3---------3--------------------------------------------------------------|
X2 (Second time do two D chords instead of G)



e|---------------------------------------------------------------------------|
B|---------------------------------------------------------------------------|
G|---------------------------------------------------------------------------|
D|---------------------------------------------------------------------------|
A|---5--5--2---2-2--5--5--2--2-2-2-------------------------------------------|
E|---3--2--0---0-0--3--2--0--0-0-0-------------------------------------------|



Verse 2
e|---------------------------------------------------------------------------|
B|---------------------------------------------------------------------------|
G|---------------------------------------------------------------------------|
D|------------77777------------44444---55555-----------------77777-----------|  
A|----55555---55555---22222----22222---33333---55555-55555---55555-----------|    
E|----33333-----------00000--------------------33333-33333-------------------|
X2 (2nd time do two D power chords again instead of G)



e|---------------------------------------------------------------------------|
B|---------------------------------------------------------------------------|
G|---------------------------------------------------------------------------|
D|---------------------------------------------------------------------------|
A|----55555555555------------------------------------------------------------|
E|----33333333333------------------------------------------------------------|



Chorus
            C 	      G	      E         D
e|---------------------------------------------------------------------------|
B|---------------------------------------------------------------------------|
G|---------------------------------------------------------------------------|
D|------55555-------------99999----77777-------------------------------------| 
A|------33333----55555----77777----55555-------------------------------------|
E|---------------33333-------------------------------------------------------|
X4



-- 8-bit solo



Chorus 3x

            C 	      G	      E         D
e|---------------------------------------------------------------------------|
B|---------------------------------------------------------------------------|
G|---------------------------------------------------------------------------|
D|------55555-------------99999----777777777777777777777777------------------| 
A|------33333----55555----77777----555555555555555555555555----5-------------|
E|---------------33333-----------------------------------------3-------------|



e|---------------------------------------------------------------------------|
B|---------------------------------------------------------------------------|
G|---------------------------------------------------------------------------|
D|---------------------------------------------------------------------------|
A|---5--5--2---2-2--5--5--2--2-2-2-------------------------------------------|
E|---3--2--0---0-0--3--2--0--0-0-0-------------------------------------------|
P.M. ------------------------------------------



e|---------------------------------------------------------------------------|
B|---------------------------------------------------------------------------|
G|---------------------------------------------------------------------------|
D|---------------22222----55555----------------------------------------------| 
A|------22222----00000----33333----55555-------------------------------------|
E|------00000----------------------33333-------------------------------------|
2x


Outro: G-D/F#-Em x4, G(hold)
e|-------------------------------------,--------------------------------------|
B|-------------------------------------,--------------------------------------|
G|---------------777-------------------,--------------------------------------|
D|------55-------777------555------2---,----5---------------------------------| 
A|------55-------555------333------2---,----5---------------------------------|
E|------33-------------------------0---,----3---------------------------------|





Comments


Popular Parry Gripp tabs & chords
Nom Nom Nom Nom Nom Nom Nom 2 Bass Tabs
Baby Monkey Going Backwards On A Pig 1 Chords
Be Yourself Chords
Chimpanzee Riding On A Segway Chords
Credit Report Chords
Fudgie The Whale Chords
Its Raining Tacos Chords
That Skunk Is Mad Chords
Derp Face I Love You Ukulele
Do You Like Waffles Ukulele


Song lyrics



↑ Back to top | Tablatures and chords are parodies/interpretations of the original songs. You may use it for private study, scholarship, research or language learning purposes only
© 2014 AZChords.com Contact us | Privacy policy | DMCA | Add/correct tabs | Request tabs | Top 50 tabs