» » »

Parry Gripp, Baby Monkey Going Backwards On A Pig Bass tabs (ver.1)

Artists:  A B C D E F G H I J K L M N O P Q R S T U V W X Y Z # 

Baby Monkey Going Backwards On A Pig Bass tabs (ver.1)

Parry Gripp Tabs
 Rating:
4/5 (4 votes)
Baby Monkey Going Backwards On A Pig lessons Tabs too difficult? Try these video lessons and learn fast
                ----------------------------------------------------------------------------
BABY MONKEY (GOING BACKWARS ON A PIG) - Parry Gripp
----------------------------------------------------------------------------

Refrain: 2x before and after bridge
G|--------------------------------------------------------------------------|
D|---2--2--2--2-2--2-2--2--2-2----------------------------------------------|
A|------------------------------2--2--2--2-2--2-2--2--2-2-2--2--2---2-2--2--|
E|--------------------------------------------------------------------------|

G|--------------------------------------------------------------------------|
D|--------------------------------------------------------------------------|
A|2--2--2-2-0--0--0--0-0--0-0-0--0--0---------------------------------------|
E|--------------------------------------------------------------------------|

Bridge:
G|--------------------------------------------------------------------------|
D|---------------------------2--2--2--2--2--2--2--2-------------------------|
A|---2--2--2--2--2--2--2--2--------------------------2--2--2--2--2--2--2--2-|
E|--------------------------------------------------------------------------|

G|--------------------------------------------------------------------------|
D|-2--2--2--2--2--2--2--2--------------------------2--2--2--2--2--2--2--2---|
A|-------------------------2--2--2--2--2--2--2--2---------------------------|
E|--------------------------------------------------------------------------|

G|--------------------------------------------------------------------------|
D|--------------------------------------------------------------------------|
A|-0-->---------------------2-->--------------------------------------------|
E|--------------------------------------------------------------------------|
To refrain

| --> hold note until next note (if more than 3 dashes away)
| /  slide up
| \  slide down
| h  hammer-on
| p  pull-off
| ~  vibrato
| +  harmonic
| x  Mute note
Only thing that's in this is the first one
Hope you liked it!!!!!! (and I hope it's right.....)
============================================================================
            
Submit corrections

comments powered by Disqus
↑ Back to top | Parry Gripp Bass for Baby Monkey Going Backwards On A Pig. Lyrics for acoustic guitar and electric guitar. Tablatures and chords are parodies/interpretations of the original songs. You may use it for private study, scholarship, research or language learning purposes only