>
 >
Tatlong Araw Intro 2

Tatlong Araw Intro 2 Bass Tabs

Parokya Ni Edgar - Tatlong Araw Intro 2 chords, tabs, tablatures, lyrics

Guitar lessons | Add/correct | Request | Top 50 tabs Artists:  A B C D E F G H I J K L M N O P Q R S T U V W X Y Z 0-9

Tatlong Araw Intro 2 Bass Tabs – Parokya Ni Edgar

CD, Sheet music, Poster

Do you like Tatlong Araw Intro 2? Share with your friends now
Bass TabsBass Tabs v2
G---------------|-----------|-----------|------------|
D---------------|-----------|---------9-|--12-10---9-|
A---9-10-9---12-|-4-5-4-----|--6-7-6----|12-----10---|
E-10------10----|5-----5--3-|7------7---|------------|

G-----------|---------|-----------------|----------|
D---6-7-6s5-|---8-9-7-|---11-12-11s9----|--6-7-6s5-|
A-7---------|---------|-12--------------|-7--------|
E-----------|---------|-----------------|----------|


'tis my first tab. i just like the song.. it remembers me of oldskool days in manila.





Comments


Popular Parokya Ni Edgar tabs & chords
Buloy Chords
Gising Na Chords
Halina Sa Parokya Chords
Pangarap Lang Kita Chords
Red Pants Chords
Sige Na Naman Chords
Your Song 1 Chords
Gitara 1 Tabs
Iwanan Mo Na Siya Tabs
Silvertoes Ukulele


Song lyrics



↑ Back to top | Tablatures and chords are parodies/interpretations of the original songs. You may use it for private study, scholarship, research or language learning purposes only
© 2014 AZChords.com Contact us | Privacy policy | DMCA | Add/correct tabs | Request tabs | Top 50 tabs