» » »

Please Dont Touch My Birdie2 Tabs (ver.1)

Artists:  A B C D E F G H I J K L M N O P Q R S T U V W X Y Z # 

Please Dont Touch My Birdie2 Tabs (ver.1)

Parokya Ni Edgar
Rating:
0/5 (0 votes)

Hard to play? Try these video lessons and learn fast.
                Hi, I’m Glenn Bernabe and I’m 16 years old. This is how I tabbed “Please don’t touch my birdie.”


INTRO:
                         (A)   				(E)
E: ----------------------------0---------------------------------------------------------------------------
B: ------------2------3-----------2-----------------------------------------0----------------------------
G: --------2------2-----2-------------------------------1--------2-------------1------------------------
D: --------------------------------------------------2--------2--------2---------------------------------
A: ---0---------------------------------------------------------------------------------------------------
E: ---------------------------------------------0----------------------------------------------------------

       (F#m)				      (G#)
E: --------------------------------------------------------4-------------4h5------4----------------------
B: -------------------0--2---3---2---------------------------5-------------------------5----------------
G: -------------------------------------2--------------------------4---------------------------7---------
D: -------------4-----------------------------------------------------------------------------------------
A: --------4----------------------------------------------------------------------------------------------
E: ---2----------------------------------------------0----------------------------------------------------

       (D)					(A)
E: --------2----------------2---------------2-------------------------------------------------------------
B: -------------3-----------------3--------------------------2-----------------2-------------------------
G: ------------------2-----------------2---------------------------2----------------2--------------------
D: ----0------------------------------------------------------------------2--------------2---------------
A: ------------------------------------------------------0------------------------------------------------
E: --------------------------------------------------------------------------------------------------------

      (F#m)					(E)
E: ----------------------------------------------------------------------------0--------------------------
B: ---------------------0---2----3---2----------------------------------0-------------------------------
G: -----------------------------------------2------------------------1-----------------------------------
D: ---------------4----------------------------------------------2---------------------------------------
A: ---------4------------------------------------------------2-------------------------------------------
E: ----2--------------------------------------------------0----------------------------------------------
 
SOLO: Lead (distortion)

E: ----------------------------------------------------------------------------17(b full)--16-17--16---
B: -----------14--------15--------17---------17(b ½)---17--17----15------------------------------
G: ------/14-------14-------14---------14--------------------------------------------------------------
D: --------------------------------------------------------------------------------------------------------
A: --------------------------------------------------------------------------------------------------------
E: --------------------------------------------------------------------------------------------------------

E: --------------------------------------------------------------------------------------------------------
B: ---17----17(b full)---17(b full)---------14-------12----------/10---9------10/12---12(b ½)--
G: --------------------------------------------------------------------------------------------------------
D: --------------------------------------------------------------------------------------------------------
A: --------------------------------------------------------------------------------------------------------
E: --------------------------------------------------------------------------------------------------------

E: ---------------9---10-----12----9--------------------------------------------------------------------
B: ---10---9----------------------------12---10---------------------------------------------------------
G: ---------------------------------------------------11---9-----------------------------7--6---7--9---
D: --------------------------------------------------------------------6/7---6--7---9--------------------
A: --------------------------------------------------------------------------------------------------------
E: --------------------------------------------------------------------------------------------------------

E: ---------------------------5(po)---7(po)---9(po)---10(po)------12(v)----------------------------
B: ---7---5---7-----9------------------------------------------------------------------------------------
G: --------------------------------------------------------------------------------------------------------
D: --------------------------------------------------------------------------------------------------------
A: --------------------------------------------------------------------------------------------------------
E: --------------------------------------------------------------------------------------------------------

Notations: h- hammer on
                (b ½)- bend ½ note 
	    (b full)- bend 1 whole step
	    (po)- pull off string
            
Hard to play? Try these video lessons and learn fast. | Correct




comments powered by Disqus
↑ Back to top | Tablatures and chords are parodies/interpretations of the original songs. You may use it for private study, scholarship, research or language learning purposes only