» » »

Parokya Ni Edgar, Pangarap Lang Kita Tabs (ver.5)

Artists:  A B C D E F G H I J K L M N O P Q R S T U V W X Y Z # 

Pangarap Lang Kita Tabs (ver.5)

Parokya Ni Edgar Tabs
 Rating:
4/5 (4 votes)
Pangarap Lang Kita lessons Tabs too difficult? Try these video lessons and learn fast
                Pangarap Lang Kita by Parokya Ni Edgar and Happee Sy

yan ang correct lyrics ng chinese. may mali kasi sa metrolyrics.com

Capo 1

or kung nahihirapan kau sa markings 

Half-Step down tuning Capo 2 

Kau na bahala

Intro:

e#|-------------0----|
B#|-----------3-0----|
G#|-----0---2---0----|
D#|---2---0-----2----|(2x)
A#|-3----------------|
E#|------------------|

e#|----------------------------------------3-----0-|
B#|-----------3--------------------------3-3-----2-|
G#|-----0---2----------------2-----0---2---0-----2-|
D#|---2---0-------5--4--2--0-----2---0-----------2-|
A#|-3--------------------------3-----------------0-|
E#|-------------3--2--0--------------------3-----x-|
Verse 1:

e#|-------------0----|
B#|-----------3-0----|
G#|-----0---2---0----|
D#|---2---0-----2----|(3x)
A#|-3----------------|
E#|------------------|

e#|-------------3----|
B#|-----------3-3----|
G#|-----0---2---0----|
D#|---2---0----------|
A#|-3----------------|
E#|-------------3----|

e#|-------------0----|
B#|-----------3-0----|
G#|-----0---2---0----|(2x)
D#|---2---0-----2----|
A#|-3----------------|
E#|------------------|

e#|----------------------------------------3-----0-|
B#|-----------3--------------------------3-3-----2-|
G#|-----0---2----------------2-----0---2---0-----2-|
D#|---2---0-------5--4--2--0-----2---0-----------2-|
A#|-3--------------------------3-----------------0-|
E#|-------------3--2--0--------------------3-----x-|

Chorus:

e#|-------------0----|
B#|-----------3-0----|
G#|-----0---2---0----|(2x)
D#|---2---0-----2----|
A#|-3----------------|
E#|------------------|

e#|----------------------------------------3-----0-|
B#|-----------3--------------------------3-3-----2-|
G#|-----0---2----------------2-----0---2---0-----2-|
D#|---2---0-------5--4--2--0-----2---0-----------2-|
A#|-3--------------------------3-----------------0-|
E#|-------------3--2--0--------------------3-----x-|

Intermission:

e#|-------------0----|
B#|-----------2-0----|
G#|-----2---2---0----|
D#|-0-4---2-----2----|
A#|-------------2----|
E#|------------------|

e#|-------------0----|
B#|-----------2-0----|
G#|-----2---2---0----|
D#|-0-4---2-----2----|
A#|-------------2----|
E#|------------------|



Verse 2(Happee Sy):


e#|-------------0----|
B#|-----------2-0----|
G#|-----2---2---0----|(3x)
D#|-0-4---2-----2----|
A#|-------------2----|
E#|------------------|

e#|-------------0----|
B#|-----------2-0----|
G#|-----2---2---0----|
D#|-0-4---2-----2----|
A#|-------------2----|
E#|------------------|

e#|-------------0----|
B#|-----------2-0----|
G#|-----2---2---0----|(2x)
D#|-0-4---2-----2----|
A#|-------------2----|
E#|------------------|

e#|-------------------------------------0---------|
B#|----------2--------------------------2---------|
G#|-----2--2--------------------2----2------------|
D#|-0-4--2------7--6--4--2--0-4----2--------------|
A#|------------------------------=------0---------|
E#|-----------5--4--2--0--------------------------|

Chorus:

e#|-------------0----|
B#|-----------2-0----|
G#|-----2---2---0----|(2x)
D#|-0-4---2-----2----|
A#|-------------2----|
E#|------------------|

e#|-------------------------------------0---------|
B#|----------2--------------------------2---------|
G#|-----2--2--------------------2----2------------|
D#|-0-4--2------7--6--4--2--0-4----2--------------|
A#|------------------------------=------0---------|
E#|-----------5--4--2--0--------------------------|

e#|-------------0----|
B#|-----------2-0----|
G#|-----2---2---0----|
D#|-0-4---2-----2----|
A#|-------------2----|
E#|------------------|

Intermission:

e#|-------------0----|
B#|-----------2-0----|
G#|-----2---2---0----|
D#|-0-4---2-----2----|
A#|-------------2----|
E#|------------------|

e#|-------------0----|
B#|-----------2-0----|
G#|-----2---2---0----|
D#|-0-4---2-----2----|
A#|-------------2----|
E#|------------------|

Chorus: (Strumming na eh)

C#-D#-Fm
At kahit mahal kita,

C#-D#-Fm
wala akong magagawa.

C#-D#-G#-Gm-Fm-D#
Tanggap ko oh aking sinta,

C#-D#-G#
Pangarap lang kita.

Verse 3:

C#-E-Fm
Sui ran wo hen ai ni

C#-E-Fm
Wo mei ban fa gao su ni 

C#-E-G#-G-F-D#
Wo xin zhong yi you qin ai 

C#-E-G#
Danshi shi wo de ai 

Chorus:

C#-D#-Fm
At kahit mahal kita (da ai ni)

C#-D#-Fm
wala akong magagawa (wo zhen de mei ban fa) 

C#-D#-G#-Gm-Fm-D#
Tanggap ko oh aking sinta,

C#-D#-G#
Pangarap lang kita.

C#-D#-G#
Pangarap lang kita.

C#-D#-Fm
Pangarap lang kita.




Dedicated sa Crush KO :x :)) 
Dahil impossible eh...
            
Submit corrections

comments powered by Disqus
↑ Back to top | Parokya Ni Edgar Tabs for Pangarap Lang Kita. Lyrics for acoustic guitar and electric guitar. Tablatures and chords are parodies/interpretations of the original songs. You may use it for private study, scholarship, research or language learning purposes only