» » »

Parokya Ni Edgar, Nakakainis Tabs

Artists:  A B C D E F G H I J K L M N O P Q R S T U V W X Y Z # 

Nakakainis Tabs

(ver. 1)
Parokya Ni Edgar Tabs
 Rating:
4/5 (4 votes)
    Nakakainis lessons Tabs too difficult? Try these video lessons and learn fast

WWW.AZCHORDS.COM | Parokya Ni Edgar Tabs - Nakakainis Tabs (ver. 1)


                -------------------------------------------------------------------------------
                            Nakakainis - pne
-------------------------------------------------------------------------------

Tuning:eb bb gb db Ab Eb
   if standard-minus 1 fret lahat
1.
Intro-
GtrI
|---------------------------------------------------------------------------|
|---------------------------------------------------------------------------|
|------------------9999999999999999--4444444444444444-777777777777777777----|
|-5555555555555555-9999999999999999--4444444444444444-777777777777777777----|
|-5555555555555555-7777777777777777--2222222222222222-555555555555555555----|
|-3333333333333333----------------------------------------------------------|
GtrII
|---------------------------------------------------------------------------|
|---------------------------------------------------------------------------|
|-121212121212121212121212-14141414-1616161616161616161616--14141414--------|
|-x-x-x-x-x-x-x-x-x-x-x-x--x-x-x-x--x-x-x-x-x-x-x-x-x-x-x---x-x-x-x---------|
|-101010101010101010101010-12121212-1414141414141414141414--12121212--------|
|---------------------------------------------------------------------------|


|---------------------------------------------------------------------------|
|---------------------------------------------------------------------------|
|--111111-121212-1414-111111-121212-1414--777777777777----------------------|
|--x-x-x--x-x-x--x-x--x-x-x--x-x-x--x-x---777777777777----------------------|
|--9-9-9--101010-1212-9-9-9--101010-1212--555555555555----------------------|
|---------------------------------------------------------------------------|

2.
GtrI
|---------------------------------------------------------------------------|
|---------------------------------------------------------------------------|
|------------------777777777777777-7999999999999999--55555555555555555------|
|-5555555555555555-777777777777777-9999999999999999--55555555555555555------|
|-5555555555555555-555555555555555-7777777777777777--33333333333333333------|
|-3333333333333333----------------------------------------------------------|
GtrII
|-----------------------------------|---------------------------------------|
|-13-12----13-12---13-12---13-12----|-15----------------15------------------|
|-------12------12-------12------12-|----14-11----11-14---14-11-12/14--12---|
|-----------------------------------|----------12---------------------------|
|-----------------------------------|---------------------------------------|
|-----------------------------------|---------------------------------------|

|-----------------------------------|---------------------------------------|
|-------13-12------------13-12------|-------------------15-13-12------------|
|----12------12-14----12------12-14-|----12----------12----------12~--------|
|-14---------------14---------------|-14----14----14------------------------|
|-----------------------------------|----------15---------------------------|
|-----------------------------------|---------------------------------------|


Verse-
1.
5x
GtrI&II
|---------------------------------------------------------------------------|
|---------------------------------------------------------------------------|
|------------------9999999999999999--4444444444444444-777777777777777777----|
|-5555555555555555-9999999999999999--4444444444444444-777777777777777777----|
|-5555555555555555-7777777777777777--2222222222222222-555555555555555555----|
|-3333333333333333----------------------------------------------------------|
  **************** ****************  **************** ******************
2.

GtrI&II
|---------------------------------------------------------------------------|
|---------------------------------------------------------------------------|
|------------------9999999999999999--4444444444444444-777777777777777777----|
|-5555555555555555-9999999999999999--4444444444444444-777777777777777777----|
|-5555555555555555-7777777777777777--2222222222222222-555555555555555555----|
|-3333333333333333----------------------------------------------------------|
  **************** ****************  **************** ******************
|---------------------------------------|-----------------------------------|
|-10--------10-------10-------10--------|-----------------------------------|
|------12-------12--------12-------12---|---12--11--12--11---12--11--12--11-|
|----12--12---12--12----12--12---12--12-|-12--12--12--12---12--12--12--12---|
|---------------------------------------|-----------------------------------|
|---------------------------------------|-----------------------------------|


|-------------------------------------|--------------------------------------|
|-------------------------------------|--------------------------------------|
|----11---9--11---9---11---9--11---9--|---9---------9--------9--------9------|
|--12--12--12--12---12--12--12--12----|-12--1212-12--1212--12--1212-12--1212-|
|-------------------------------------|--------------------------------------|
|-------------------------------------|--------------------------------------|

verseII
GtrI
|---------------------------------------------------------------------------|
|---------------------------------------------------------------------------|
|------------------9999999999999999--4444444444444444-777777777777777777----|
|-5555555555555555-9999999999999999--4444444444444444-777777777777777777----|
|-5555555555555555-7777777777777777--2222222222222222-555555555555555555----|
|-3333333333333333----------------------------------------------------------|
GtrII
|---------------------------------------------------------------------------|
|---------------------------------------------------------------------------|
|-121212121212121212121212-14141414-1616161616161616161616--14141414--------|
|-x-x-x-x-x-x-x-x-x-x-x-x--x-x-x-x--x-x-x-x-x-x-x-x-x-x-x---x-x-x-x---------|
|-101010101010101010101010-12121212-1414141414141414141414--12121212--------|
|---------------------------------------------------------------------------|


|---------------------------------------------------------------------------|
|---------------------------------------------------------------------------|
|--111111-121212-1414-111111-121212-1414--777777777777----------------------|
|--x-x-x--x-x-x--x-x--x-x-x--x-x-x--x-x---777777777777----------------------|
|--9-9-9--101010-1212-9-9-9--101010-1212--555555555555----------------------|
|---------------------------------------------------------------------------|

2.
GtrI
|---------------------------------------------------------------------------|
|---------------------------------------------------------------------------|
|------------------777777777777777-7999999999999999--55555555555555555------|
|-5555555555555555-777777777777777-9999999999999999--55555555555555555------|
|-5555555555555555-555555555555555-7777777777777777--33333333333333333------|
|-3333333333333333----------------------------------------------------------|
GtrII
|-----------------------------------|---------------------------------------|
|-13-12----13-12---13-12---13-12----|-15----------------15------------------|
|-------12------12-------12------12-|----14-11----11-14---14-11-12/14--12---|
|-----------------------------------|----------12---------------------------|
|-----------------------------------|---------------------------------------|
|-----------------------------------|---------------------------------------|

|-----------------------------------|---------------------------------------|
|-------13-12------------13-12------|-------------------15-13-12------------|
|----12------12-14----12------12-14-|----12----------12----------12~--------|
|-14---------------14---------------|-14----14----14------------------------|
|-----------------------------------|----------15---------------------------|
|-----------------------------------|---------------------------------------|

repeat verse-

GtrI
|---------------------------------------------------------------------------|
|---------------------------------------------------------------------------|
|------------------777777777777777-7999999999999999--55555555555555555------|
|-5555555555555555-777777777777777-9999999999999999--55555555555555555------|
|-5555555555555555-555555555555555-7777777777777777--33333333333333333------|
|-3333333333333333----------------------------------------------------------|
GtrII
|---------------------------------------------------------------------------|
|---------------------------------------------------------------------------|
|-121212121212121212--11111111--77777777--12121212--11111111----------------|
|-x-x-x-x-x-x-x-x-x---x-x-x-x---x-x-x-x---x-x-x-x---x-x-x-x-----------------|
|-101010101010101010--9-9-9-9---55555555--10101010--9-9-9-9-----------------|
|---------------------------------------------------------------------------|

|---------------------------------------------------------------------------|
|---------------------------------------------------------------------------|
|-999-11111111-1212--999-11111111-1212---555555555555555--------------------|
|-xxx-x-x-x-x--x-x---xxx-x-x-x-x--x-x----xxxxxxxxxxxxxxx--------------------|
|-777-9-9-9-9--1010--777-9-9-9-9--1010---333333333333333--------------------|
|---------------------------------------------------------------------------|


Outro -
GtrI
|---------------------------------------------------------------------------|
|---------------------------------------------------------------------------|
|------------------9999999999999999--4444444444444444-77777777777777777-----|
|-5555555555555555-9999999999999999--4444444444444444-77777777777777777-----|
|-5555555555555555-7777777777777777--2222222222222222-55555555555555555-----|
|-3333333333333333----------------------------------------------------------|
GtrII
|---------------------------------------------------------------------------|
|---------------------------------------------------------------------------|
|-121212121212121212121212-14141414-1616161616161616161616--14141414--------|
|-x-x-x-x-x-x-x-x-x-x-x-x--x-x-x-x--x-x-x-x-x-x-x-x-x-x-x---x-x-x-x---------|
|-101010101010101010101010-12121212-1414141414141414141414--12121212--------|
|---------------------------------------------------------------------------|


|---------------------------------------------------------------------------|
|---------------------------------------------------------------------------|
|--111111-121212-1414-111111-121212-1414--777777777777----------------------|
|--x-x-x--x-x-x--x-x--x-x-x--x-x-x--x-x---777777777777----------------------|
|--9-9-9--101010-1212-9-9-9--101010-1212--555555555555----------------------|
|---------------------------------------------------------------------------|

2.
GtrI
|---------------------------------------------------------------------------|
|---------------------------------------------------------------------------|
|------------------777777777777777-7999999999999999--55555555555555555------|
|-5555555555555555-777777777777777-9999999999999999--55555555555555555--5~--|
|-5555555555555555-555555555555555-7777777777777777--33333333333333333--5~--|
|-3333333333333333------------------------------------------------------3~--|
GtrII
|-----------------------------------|---------------------------------------|
|-13-12----13-12---13-12---13-12----|-15----------------15------------------|
|-------12------12-------12------12-|----14-11----11-14---14-11-12/14--12---|
|-----------------------------------|----------12---------------------------|
|-----------------------------------|---------------------------------------|
|-----------------------------------|---------------------------------------|

|-----------------------------------|---------------------------------------|
|-------13-12------------13-12------|-------------------15-13-12------------|
|----12------12-14----12------12-14-|----12----------12----------12~----12~-|
|-14---------------14---------------|-14----14----14------------------------|
|-----------------------------------|----------15---------------------------|
|-----------------------------------|---------------------------------------|

| /  slide up
| \  slide down
| h  hammer-on
| p  pull-off
| ~  vibrato
| +  harmonic
| *  Palm Mute 
===============================================================================
            
Submit corrections

↑ Back to top | Parokya Ni Edgar Tabs for Nakakainis. Lyrics for acoustic guitar and electric guitar. Tablatures and chords are parodies/interpretations of the original songs. You may use it for private study, scholarship, research or language learning purposes only