>
 >
Kaleidoscope World 3

Kaleidoscope World 3 Guitar Tabs

Parokya Ni Edgar - Kaleidoscope World 3 chords, tabs, tablatures, lyrics

Guitar lessons | Add/correct | Request | Top 50 tabs Artists:  A B C D E F G H I J K L M N O P Q R S T U V W X Y Z 0-9

Kaleidoscope World 3 Guitar Tabs – Parokya Ni Edgar

CD, Sheet music, Poster

Do you like Kaleidoscope World 3? Share with your friends now
ChordsTabsTabs v2Tabs v3Tabs v4Tabs v5Tabs v6Ukulele


Abangan natin ung nxt album nila, lapit n daw! Saka sponge cola. ke bamboo naman
april or may daw... about this tab 97.3% tama 'tong gawa ko!
try mo rin ung tab ko ng DRAGONFLY ng Sponge Cola...

i dedicate this tab/song to all redemptorist seminarians (batch '03)
Mabuhay ang batch natin!!!!

Intro: (solo)

e---15-15---------------------------------I
B----------12h-15-12h-15------------------I
G----------------------------------12----I
D-------------------------12h-14---------I
A-----------------------------------------I
E-----------------------------------------I

ppasok si Gab after 7h 9(G), kasabay ng 8 (B) 
                 G
e-----------------------------------------------------------I
B-------------8------8-10-------10-1210h12-10--------------I
G-------7h-9---7h-9-------7h-9------------------12-9------I
D-7h-9-----------------------------------------------------I
A-----------------------------------------------------------I
E-----------------------------------------------------------I

e--------------------------------15s17-15-------------------I
B------8-8(8)8s-10-10(10)10s12s15-----------1212s-15------I
G7h-9------------------------------------------------------I
D----------------------------------------------------------I
A-----------------------------------------------------------I
E-----------------------------------------------------------I
Verse: (Darius)
   G                    Am      Bm       C   (chords ni Gab)
e--3-----------------5------7------8------------------------I
B--3-----------------5------7------5------------------------I
G-4-----------------5------7------5------------------------I
D----------------------------------------------------------I
A-----------------------------------------------------------I
E-----------------------------------------------------------I

(after chorus)
II
e------------------------------12---------------------------I
B-------8-------10-10s-12--15-----------10------------------I
G-7s-9----7s-9---------------------12----------------------I
D----------------------------------------------------------I
A-----------------------------------------------------------I
E-----------------------------------------------------------I

e------------------------------12---15----------------------I
B-------8-------10-10s-12--15-------------------------------I
G-7s-9----7s-9---------------------------------------------I
D----------------------------------------------------------I
A-----------------------------------------------------------I
E-----------------------------------------------------------I

Chords: (chorus)

    G   Bm    C      D
e------------------------I
B------------------------I
G-------------------7---I
D--5-----9----10---7---I     
A---5-----9----10----5---I
E---3-----7----8---------I

(d ko pa tapos ung adlib, ung pgkatapos ng chorus basta nasa 11th hanggang


Lyrics:
I
So many faces, so many races
Different voices, different choices
Some are mad while others laugh
Some live alone with no better half
Others greed while others curse
And others mourn behind the big black purse
And some are pure, and some half-bred
And some are sober and some are wasted
Some are rich because of faith
And some are poor with no food on their plate
Some stand out, while others blend
Some are fat and stout while some are thin
And some are friends, and some are foes
Some have some, while some have most
 Yeah
Chorus:
Every color every hue
Is represented by me and you
Take a slide in the slope
Take a look at the kaleidoscope
Make it round, make it twirl
In this Kaleidoscope world
II
Some are great and some are few
Others lie while some tell the truth
And some say poems, and some do sing
And other sing through their guitar strings
Some know it all while some act dumb
Let the bass line strum to the bang of the drum
Some can swim while some will sink
Some will find their minds and think
Others walk, while others run
You can't talk peace and have gun
Some are hurt and start to cry
Don't ask me how don't ask me how
And some are friends, and some are foes
Some have some, while some have most
     Yeah
...world
Kaleidoscope world
In this kaleidoscope world

tapos na...







-





Comments


Popular Parokya Ni Edgar tabs & chords
Nakakainis Chords
Parang Ayoko Na Yata 1 Chords
Gising Na Tabs
Harana Syllabication Tab Tabs
Lab Sung Tabs
Maniwala Ka Sana 2 Tabs
Sampip 1 Tabs
Amats Ukulele
Iisa Lang Ukulele
Pedro Basura Man Ukulele


Song lyrics



↑ Back to top | Tablatures and chords are parodies/interpretations of the original songs. You may use it for private study, scholarship, research or language learning purposes only
© 2014 AZChords.com Contact us | Privacy policy | DMCA | Add/correct tabs | Request tabs | Top 50 tabs