>
 >
Kaleidoscope World 1

Kaleidoscope World 1 Guitar Tabs

Parokya Ni Edgar - Kaleidoscope World 1 chords, tabs, tablatures, lyrics

Guitar lessons | Add/correct | Request | Top 50 tabs Artists:  A B C D E F G H I J K L M N O P Q R S T U V W X Y Z 0-9

Kaleidoscope World 1 Guitar Tabs – Parokya Ni Edgar

CD, Sheet music, Poster

Do you like Kaleidoscope World 1? Share with your friends now
ChordsTabsTabs v2Tabs v3Tabs v4Tabs v5Tabs v6Ukulele
intro:
|-----15-15-------------------------------------|
|-----15----12h14-12----------------------------|
|-------------------14------12-------------12---|
|----------------------12h14--14------12h14-----|
|--------------------------------12h14----------|
|-----------------------------------------------|


|---------------------------|-----------------------15H17-15--------|
|----------10----12----10---|----------8H10-10-12-15---------12-15^-|
|---12--7/9---7/9---7/9--9--|---12--7/9-----------------------------|
|---------------------------|---------------------------------------|
|---------------------------|---------------------------------------|
|---------------------------|---------------------------------------|

verse:1
|---------3-3-------5-5-------7-7-------5h7(5)----------|
|---------3-3-------5-5-------7-7-------5-----5---------|
|-------------------------------------------------------|
|-------------------------------------------------------|
|-------------------------------------------------------|
|-------------------------------------------------------|

chorus:
|------------------------------|
|------------------------------|
|---------8888--5555--6666-----|\
|---6666--8888--5555--6666-----| 2x
|---6666--6666--3333--4444-----|/
|---4444-----------------------|

verse 2:
|-----------------------------------|--------------------------------------|
|-----------------------------------|-----------------------------15-------|
|-------------10--12-13-15-15^------|-------------10--12-13-15-15^--12h15--|
|---7/9-12-7/9----------------12----|---7/9-12-7/9-------------------------|
|-----------------------------------|--------------------------------------|
|-----------------------------------|--------------------------------------|

|---------3-3-------5-5-------7-7-------5h7(5)----------|
|---------3-3-------5-5-------7-7-------5-----5---------|
|-------------------------------------------------------|
|-------------------------------------------------------|
|-------------------------------------------------------|
|-------------------------------------------------------|

chorus: with distorsion
                   
|------------------------------|      
|------------------------------|      
|---------8888--5555--6666-----|\   
|---6666--8888--5555--6666-----| 2x   
|---6666--6666--3333--4444-----|/     
|---4444-----------------------|      

   
|----------------------|
|----------------------|
|-------5555-----------|
|-6666--5555--3333-----|
|-6666--3333--3333-----|
|-4444--------1111-----|


solo:
|----------------------------------------------------|
|----------------------------------------------------|
|--1919h2119-16-1616h1816-14-1414h1614---------------|
|-------------------------------------12h14-16-17^17-|
|----------------------------------------------------|
|----------------------------------------------------|

|--------------------------------------|
|--------------------------------------|
|-------12-14-16-14-12-14-12--------12-|
|--12-14--------------------14-14/17---|
|--------------------------------------|
|--------------------------------------|

|----------------------------------------------------|
|----------------------------------------------------|
|--1919h2119-16-1616h1816-14-1414h1614---------------|
|-------------------------------------12h14-16-17^17-|
|----------------------------------------------------|
|----------------------------------------------------|

|--------------------------------------------|
|--------------------------------------------|
|-------12-14-16-14-12-17-16-14-12-14^^------|
|--12-14-------------------------------------|
|--------------------------------------------|
|--------------------------------------------|

|---------------------------------------|
|--17-15-12-----------------------------|
|----------14-12------------------------|
|---------------14-12-10-----------13---|
|-----------------------13-11-13/15-----|
|---------------------------------------|

use palm mute:
|--------------------------------------|
|---------------------------------10---|
|----------------------10-13-10-13-----|
|-------10--10-13-10-13----------------|
|--11-13--13---------------------------|
|--------------------------------------|

stop palm mute:
|--15/17-15---------------|
|----------17-15h17-15----|
|-------------------------|
|-------------------------|
|-------------------------|
|-------------------------|

|------------------------------------------------------------|
|---12-----12--------12--------12--1212-15-13-12-------------|
|-----14-12--14-12-14--14-12-14-----------------14-12-11-----|
|-------------------------------------------------------12---|
|------------------------------------------------------------|
|------------------------------------------------------------|

|------------------------------------------15------------------|
|----------13/15-------12/13-------13/15^----15^-13121312------|
|---12-1212-----12-1212-----12-1212----------------------------|\
|--------------------------------------------------------------| 2x
|--------------------------------------------------------------|/
|--------------------------------------------------------------|

|---------------------------------------------------------------------|
|--------------15--------------15--------------15---------------------|
|---12-15-12-13--------15-12-13--------15-12-13--------15^-13121312---|\
|----------------12--12----------12--12----------12--12---------------| 2x
|---------------------------------------------------------------------|/
|---------------------------------------------------------------------|

repeat chorus: with distorsion
    
|------------------------------|
|------------------------------|
|---------8888--5555--6666-----|\
|---6666--8888--5555--6666-----| 2x
|---6666--6666--3333--4444-----|/
|---4444-----------------------|

last part:
in this kaleidoscope, in this kaleidoscope, in this kaleidoscope

     
|-----------------------------------|
|-----------------------------------|
|--------6666-6666-6666-------------|
|---6666-6666-6666-6666-6666~~~-----|
|---6666-4444-4444-4444-6666~~~-----|
|---4444----------------4444~~~-----|





Comments


Popular Parokya Ni Edgar tabs & chords
Hosana Ngayon Pasko Chords
My One And Only You 3 Chords
Sayang 2 Chords
Bagsakan Intro Tabs
Nakakainis 3 Tabs
Sad Trip (Intro) Tabs
Ikay Aking Mahal Ukulele
Paparap Ukulele
Reunion Panahon Ng Kasiyaha Ukulele
So Kapdi Ukulele


Song lyrics



↑ Back to top | Tablatures and chords are parodies/interpretations of the original songs. You may use it for private study, scholarship, research or language learning purposes only
© 2014 AZChords.com Contact us | Privacy policy | DMCA | Add/correct tabs | Request tabs | Top 50 tabs