» » »

Iisa Lang Tabs (ver.1)

Artists:  A B C D E F G H I J K L M N O P Q R S T U V W X Y Z # 

Iisa Lang Tabs (ver.1)

Parokya Ni Edgar
Rating:
0/5 (0 votes)

Hard to play? Try these video lessons and learn fast.
                (Intro)
intro:
    G         G
e|-10-12-7-8--7-8-5-3-|       e|-----------|
B|--------------------|       B|-8--8--8---|
G|-11-12-7-9--7-9-5-4-|   X2  G|-7--7--7---| pause
D|--------------------|       D|-10-10-10--|
A|--------------------|       A|-----------|
E|--------------------|       E|-----------|

verse:

e|-------------------------10--------------------|
B|---8---8-10-8---8----8------8---8----------8---|
G|-----7--------7--------7------7-------7--------|
D|-9-----------------7---------------------------|
A|-----------------------------------10---10-----|
E|-----------------------------------------------|

e|-------------10-------------------------------10------------------|
B|---------8------8---8----8---10-8---8-----8------8---8----------8-|
G|-----------7------7--------7------7---------7------7-------7------| X2
D|-8/10-10---------------9----------------7-------------------------|
A|--------------------------------------------------------10---10---|
E|------------------------------------------------------------------|

e|--------------10------------------------------10-------|
B|---------8-------8---8---8---10-8---8-----8------8---8-|
G|------------7------7-------7------7---------7------7---|
D|-8/10-10---------------9---------------7---------------|
A|-------------------------------------------------------|
E|-------------------------------------------------------|

do the intro again then verse, and add this to the last part.
e|------------|
B|----------8-|
G|----7-------|
D|------------|
A|-10----10---|
E|------------|
            
Hard to play? Try these video lessons and learn fast. | Correct




comments powered by Disqus
↑ Back to top | Tablatures and chords are parodies/interpretations of the original songs. You may use it for private study, scholarship, research or language learning purposes only