>
 >
How To Make A Love Song

How To Make A Love Song Guitar Tabs

Parokya Ni Edgar - How To Make A Love Song chords, tabs, tablatures, lyrics

Guitar lessons | Add/correct | Request | Top 50 tabs Artists:  A B C D E F G H I J K L M N O P Q R S T U V W X Y Z 0-9

How To Make A Love Song Guitar Tabs – Parokya Ni Edgar

CD, Sheet music, Poster

Do you like How To Make A Love Song? Share with your friends now
ChordsChords v2Chords v3Chords v4TabsTabs v2Tabs v3Tabs v4Tabs v5Tabs v6Tabs v7Ukulele
Song Name   : HOW TO MAKE A LOVE SONG
Song Artist : PAROKYA NI EDGAR

Paki rate po pls... Sana maintindihan nyo ang aking pinaggagagawa...
D ko alam kung tama ang bilang ng dash at nung counting... 1st time ko kasing gumawa...
Kya pasensya na...

            ----------------------------------
                  HOW TO MAKE A LOVE SONG
            ----------------------------------
Standard Tuning: EADGBE


      D                      Bm
The 1st part of this song, I guess
      Em                   A
should start with something sweet
      D               Bm
cause lovesongs often do ,and you know
Em             A
me, i'm such a geek
   G               D
For songs that I can sing to you
          G                   D
and I'm hoping this could be one
    G                     D
and I hope that you would like
            Em               D
me...este...like it when i'm done

    D           Bm           Em
The 2nd part is easy to mess up with
         A
something cheesy
   D                  Bm
So I better choose my words cause I
      Em            A
don't want it to be mushy...
     G                     D
coz' that's the thing with lovesongs
    G                D
and that's the tricky part
     G                 D
it's not hard to sound corny when you're
Em               D
singing from the heart

    Bm                                  A
And when the chorus comes,I must come up
              
with something clever
    Bm                                   A
coz For you it's just a lovesong but for me
            
it's now or never!
    Em              A
And though I tried my best to make it
Bm            D
beautiful and true
G             D           
I Could Never Make A Song As
Em           D 
Beautiful As You...

Guitar 1
D-Bm-E-A (2x)

Guitar 2[Solo] (1:10)
 
e --------------8----6---|-----------------------|-----------------------|
B -----------------------|-8-----6---------9--8--|-6---------------------|
G --8----8---------------|-----------8-----------|-----8-----7-----------|
D ----8------------------|-----------------------|-----------------8-----|
A -----------------------|-----------------------|-----------------------|
E -----------------------|-----------------------|-----------------------|
    1  &  2  &  3  &  4  &  1  &  2  &  3  &  4  &  1  &  2  &  3  &  4  & 


e --6--------------------|-----------------------|----11-----13----------|
B --8--------------------|-------------9---11----|---9-------------------|
G -----------------------|--8----8-----8---10----|--8--------------------|
D -----------------------|----8------------------|-----------------------|
A -----------------------|-----------------------|-----------------------|
E -----------------------|-----------------------|-----------------------|
    1  &  2  &  3  &  4  &  1  &  2  &  3  &  4  &  1  &  2  &  3  &  4  &


e --16---15-13-----------|-----------------------|--13-15-16-------------|
B -----------------16----|-16s18-----11s13--11---|--------------13-15-16-|
G -----------------------|-----------------------|-----------------------|
D -----------------------|-----------------------|-----------------------|
A -----------------------|-----------------------|-----------------------|
E -----------------------|-----------------------|-----------------------|
    1  &  2  &  3  &  4  &  1  &  2  &  3  &  4  &  1  &  2  &  3  &  4  & 


e -----------------------|--13-15-16-------------|-----------------------|
B --------------------16-|--------------13-15-16-|--------------------16-|
G --12-13-15-------15----|-----------------------|--12-13-15-------15----|
D --------------13-------|-----------------------|--------------13-------|
A -----------------------|-----------------------|-----------------------|
E -----------------------|-----------------------|-----------------------|
    1  &  2  &  3  &  4  &  1  &  2  &  3  &  4  &  1  &  2  &  3  &  4  & 


e --13-15-16-------------|-----------------------|--16---15-13-----------|
B --------------13-15-16-|--------------------16-|-----------------16----|
G -----------------------|--12-13-15-------15----|-----------------------|
D -----------------------|--------------13-------|-----------------------|
A -----------------------|-----------------------|-----------------------|
E -----------------------|-----------------------|-----------------------|
    1  &  2  &  3  &  4  &  1  &  2  &  3  &  4  &  1  &  2  &  3  &  4  &


e -----------------18----|--------18----------18-|
B -----------16----------|--16----------16-------|
G --15-------------------|-----------------------|
D -----------------------|-----------------------|
A -----------------------|-----------------------|
E -----------------------|-----------------------|
    1  &  2  &  3  &  4  &  1  &  2  &  3  &  4  &


(ulitin lang ang chords sa taas)

    Bm                                  A
And when the chorus comes,I must come up
              
with something clever
    Bm                                   A
coz For you it's just a lovesong but for me
            
it's now or never!
    Em              A
And though I tried my best to make it
Bm            D
beautiful and true
G             D           
I Could Never Make A Song As
Em           D 
Beautiful As You...
D                    Bm
I Could Never Make A Love Song
Em          
As Beautiful 
    D
As You...

THNX!!





Comments


Popular Parokya Ni Edgar tabs & chords
Alumni Homecoming Bass Tabs
Pangarap Lang Kita 2 Bass Tabs
Halaga Chords
Lutong Bahay 2 Chords
Tsaka Na Lang Chords
Gitara 3 Tabs
Halaga 1 Tabs
Maniwala Ka Sana Tabs
Victor Could 1 Tabs
Silvertoes Ukulele


Song lyrics



↑ Back to top | Tablatures and chords are parodies/interpretations of the original songs. You may use it for private study, scholarship, research or language learning purposes only
© 2014 AZChords.com Contact us | Privacy policy | DMCA | Add/correct tabs | Request tabs | Top 50 tabs