>
 >
Harana 2

Harana 2 Guitar Tabs

Parokya Ni Edgar - Harana 2 chords, tabs, tablatures, lyrics

Guitar lessons | Add/correct | Request | Top 50 tabs Artists:  A B C D E F G H I J K L M N O P Q R S T U V W X Y Z 0-9

Harana 2 Guitar Tabs – Parokya Ni Edgar

CD, Sheet music, Poster

Do you like Harana 2? Share with your friends now
ChordsChords v2Chords v3Chords v4Chords v5Chords v6Chords v7Chords v8TabsTabs v2Tabs v3Ukulele
Gtr I (E A D G B E) - 'Guitar'


  
             uso pa ba..
|---------|----------------------7-5-|-(5)-7-(7)--(7)------|
|---------|---3-5-7-8-(8)--(8)-------|---------------------|
|---------|--------------------7-----|---------------------|
|---------|--------------------------|---------------------|
|---------|--------------------------|---------------------|
|---------|--------------------------|---------------------|


|-----7-5-7-5-(5)------------|-------7-5-(5)----|-------------------7-5--|
|-----------------3-(3)--3-5-|-(5)--------------|---3-5-7-8-(8)----------|
|---7------------------------|------------------|-----------------7------|
|----------------------------|------------------|------------------------|
|----------------------------|------------------|------------------------|
|----------------------------|------------------|------------------------|


|-(5)-7--7-7-7-8-8-7-5-(5)-7---|
|----------------------------8-|
|------------------------------|
|------------------------------|
|------------------------------|
|------------------------------|


|----------12-10-12-10-(10)------------------|-------------|
|-(8)--8-8------------------12-(12)-------10-|-(10)--------|
|-----------------------------------12-12----|-------------|
|--------------------------------------------|-------------|
|--------------------------------------------|-------------|
|--------------------------------------------|-------------|


|--------------------------------------|
|--------------------------------------|
|--------------------------------16-14-|
|---12-12-14-16-17-(17)--(17)----------|
|-----------------------------17-------|
|--------------------------------------|


|-------------------|---------------------------|
|------12-(12)------|---------12-10-(10)--------|
|-(14)--------------|---------------------------|
|-------------------|---12-14---------------12--|
|-------------------|---------------------------|
|-------------------|---------------------------|


|----------------------|--------------------------------------|
|--------12-10-(10)----|--------------------------------------|
|----------------------|--------------------------------16-14-|
|-14--14---------------|---12-12-14-16-17-(17)--(17)----------|
|----------------------|-----------------------------17-------|
|----------------------|--------------------------------------|


|----------------------------------------------|
|------12-(12)-12-12-12-13-13-12-10-(10)-12----|
|-(14)--------------------------------------12-|
|----------------------------------------------|
|----------------------------------------------|
|----------------------------------------------|


|------------12-10-12-10-(10)----------|
|-----------------------------12-------|
|-(12)-12-12---------------------12-12-|
|--------------------------------------|
|--------------------------------------|
|--------------------------------------|


|-----------------------|-------------------------|
|-13-12-10-8-10-(10)----|-(10)--(10)-----12-12-13-|
|-----------------------|-------------------------|
|-----------------------|-------------------------|
|-----------------------|-------------------------|
|-----------------------|-------------------------|


|--------------------------------|---------------------------------|
|-15-15-15-17-15-(15)------------|-15-15-15-(15)-13-12-13-12-------|
|-----------------------16-16-17-|---------------------------------|
|--------------------------------|------------------------------12-|
|--------------------------------|---------------------------------|
|--------------------------------|---------------------------------|


|----------------------------------|
|--------------12-(12)-10-8-10-12--|
|----12--12------------------------|
|-14--------14---------------------|
|----------------------------------|
|----------------------------------|


|----------------------------------|
|-(12)--(12)-13-15-(15)------------|
|-----------------------16--16--17-|
|----------------------------------|
|----------------------------------|
|----------------------------------|


|--------------------------------15-|-14------------------------------|
|-15-15--15-17-15-(15)--(15)--15----|----15-15-(15)-13-12-13-12-------|
|-----------------------------------|---------------------------------|
|-----------------------------------|------------------------------12-|
|-----------------------------------|---------------------------------|
|-----------------------------------|---------------------------------|


|--------------------------------|------------------|
|-------------12-(12)-10-8-10-12-|-(12)-------------|
|----12-12-----------------------|------------------|
|-14-------14--------------------|------------12-12-|
|--------------------------------|------------------|
|--------------------------------|------------------|


                                     2/4
|-----------------------------------|----------------|
|------------------12-(12)-10-(10)--|-(10)--8-8-10-8-|
|----12-12-(12)---------------------|----------------|
|-14------------14------------------|----------------|
|-----------------------------------|----------------|
|-----------------------------------|----------------|


 4/4
|------------|---------|------------------7-5-|-(5)-7-------|
|-(8)--------|---------|-------5-7-8----------|-------------|
|------------|---------|---7-7----------7-----|-------------|
|------------|---------|----------------------|-------------|
|------------|---------|----------------------|-------------|
|------------|---------|----------------------|-------------|


|-----7-----------------------------|---------------------------|
|-------8-10-(10)-------------------|-------------12-10-(10)----|
|---7-------------------------------|---------------------------|
|-----------------12-12-(12)--12-14-|-(14)--(14)----------------|
|-----------------------------------|---------------------------|
|-----------------------------------|---------------------------|


|--------------------------------------------|
|--------------------------------------------|
|--------------------------------------------|
|---12-12-14-16-17-(17)----------------21-19-|
|------------------------19-19-(19)-19-------|
|--------------------------------------------|


|------------------------------------------|
|------------------------------------------|
|------------------------------------------|
|-(19)-21--21-21-21-22-22-21-19-(19)-21----|
|---------------------------------------22-|
|------------------------------------------|


|--------------------------------------|
|--------------17-15-(15)--------------|
|--------21-19------------16-16--------|
|-------------------------------17-17--|
|--22-22-------------------------------|
|--------------------------------------|


|------------------------|--------------------|
|-------------10-(10)----|-(10)------12-12-13-|
|-17-16-14-12------------|--------------------|
|------------------------|--------------------|
|------------------------|--------------------|
|------------------------|--------------------|


|--------------------------------|---------------------------------|
|-15-15-15-17-15-(15)------------|-15-15-15-(15)-13-12-13-12-------|
|-----------------------16-16-17-|---------------------------------|
|--------------------------------|------------------------------12-|
|--------------------------------|---------------------------------|
|--------------------------------|---------------------------------|


|----------------------------------|
|--------------12-(12)-10-8-10-12--|
|----12--12------------------------|
|-14--------14---------------------|
|----------------------------------|
|----------------------------------|


|----------------------------------|
|-(12)--(12)-13-15-(15)------------|
|-----------------------16--16--17-|
|----------------------------------|
|----------------------------------|
|----------------------------------|


|--------------------------------15-|-14------------------------------|
|-15-15--15-17-15-(15)--(15)--15----|----15-15-(15)-13-12-13-12-------|
|-----------------------------------|---------------------------------|
|-----------------------------------|------------------------------12-|
|-----------------------------------|---------------------------------|
|-----------------------------------|---------------------------------|


|--------------------------------|------------------|
|-------------12-(12)-10-8-10-12-|-(12)-------------|
|----12-12-----------------------|------------------|
|-14-------14--------------------|------------12-12-|
|--------------------------------|------------------|
|--------------------------------|------------------|


                                     2/4
|-----------------------------------|----------------|
|------------------12-(12)-10-(10)--|-(10)--8-8-10-8-|
|----12-12-(12)---------------------|----------------|
|-14------------14------------------|----------------|
|-----------------------------------|----------------|
|-----------------------------------|----------------|


                         Q=65
 4/4
|------------|---------|-----*|
|-(8)--------|---------|-----*|
|------------|---------|-----*|
|------------|---------|-----*|
|------------|---------|-----*|
|------------|---------|-----*|





Comments


Popular Parokya Ni Edgar tabs & chords
Ordertaker Chords
Ted Hannah 2 Chords
Your Song Chords
Buloy Tabs
Gitara 8 Tabs
How To Make A Love Song 7 Tabs
Silvertoes Tabs
Superstar Tabs
Swimming Beach Complete Tabs
Ted Hannah 4 Tabs


Song lyrics



↑ Back to top | Tablatures and chords are parodies/interpretations of the original songs. You may use it for private study, scholarship, research or language learning purposes only
© 2014 AZChords.com Contact us | Privacy policy | DMCA | Add/correct tabs | Request tabs | Top 50 tabs