» » »

Parokya Ni Edgar, Halaga Tabs (ver.5)

Artists:  A B C D E F G H I J K L M N O P Q R S T U V W X Y Z # 

Halaga Tabs (ver.5)

Parokya Ni Edgar Tabs
Rating:
0/5 (0 votes)
Halaga lessons Tabs too difficult? Try these video lessons and learn fast
                -------------------------------------------------------------------------------
                             HALAGA - Parokya ni Edgar
-------------------------------------------------------------------------------

Ok, this the 100% correct tab of Halaga, even my guitar teacher said so.

Tuning: Standard Tuning

*INTRO - distortion (Listen for the timing for when guitar 1 or 2 plays, the
really high pitched guitar is guitar 1 and the lower is guitar 2)

guitar 1
e|----------12--14--15--14--12--14-------------------------------------------|
B|------15--------------------------15---------------------------------------|
G|--14----------------------------------14-----------------------------------|
D|---------------------------------------------------------------------------|
A|---------------------------------------------------------------------------|
E|---------------------------------------------------------------------------|

e|----------17--15-15--14--15--14--------------------------------------------|
B|--12--15-------------------------15------15--17--15--14--15----------------|
G|-------------------------------------14------------------------------------|
D|---------------------------------------------------------------------------|
A|---------------------------------------------------------------------------|
E|---------------------------------------------------------------------------|

e|-----------12--14--15--14--12--14------------------------------------------|
B|-----12-15-------------------------15------12-15--17--15--14--15-----------|
G|--14-----------------------------------14----------------------------------|
D|---------------------------------------------------------------------------|
A|---------------------------------------------------------------------------|
E|---------------------------------------------------------------------------|

guitar 2
e|--------0--2--3--2--0--2---------------------------------------------------|
B|-----3--------------------3------------------------------------------------|
G|--2--------------------------2---------------------------------------------|
D|---------------------------------------------------------------------------|
A|---------------------------------------------------------------------------|
E|---------------------------------------------------------------------------|

e|-----5--3--2--3--2-----------0---------------------------------------------|
B|--------------------3-----3-----3--2--3------------------------------------|
G|--4--------------------2---------------------------------------------------|
D|---------------------------------------------------------------------------|
A|---------------------------------------------------------------------------|
E|---------------------------------------------------------------------------|

VERSE-clean (Just listen to the song to get the correct strumming pattern.)
guitar 1 and 2
    D           A           Bm
e|--2--2-2--2---------------2--2-2--2----------------------------------------|
B|--3--3-3--3---2--2-2--2---3--3-3--3----------------------------------------|
G|--2--2-2--2---2--2-2--2---4--4-4--4----------------------------------------|
D|--0--0-0--0---2--2-2--2---4--4-4--4----------------------------------------|
A|--------------0--0-0--0---2--2-2--2----------------------------------------|
E|---------------------------------------------------------------------------|

PRECHORUS - distortion
    G       D       A        G       D       Bm      A          
e|--3-------2----------------3-------2-------2-------------------------------|
B|--3-------3-------2--------3-------3-------3-------2-----------------------|
G|--0->8x---2->8x---2--------0->8x---2->8x---4->8x---2-----------------------|
D|--0-------0-------2->16x---0-------0-------4-------2->8x-------------------|
A|--2---------------0--------2---------------2-------0-----------------------|
E|--3------------------------3-----------------------------------------------|

CHORUS - distortion
guitar 1 and 2 (Just the same chords as in the verse, listen to the song to find
out how many times to play this.)
e|--2-------------2----------------------------------------------------------|
B|--3->8x--2------3------2---------------------------------------------------|
G|--2------2------4->8x--2---------------------------------------------------|
D|--0------2->8x--4------2->8x-----------------------------------------------|
A|---------0------2------0---------------------------------------------------|
E|---------------------------------------------------------------------------|

SOLO - distortion
only guitar 1
e|---------------------------------------------------------------------------|
B|--10-10-10-10--8-7-8--7-8-10-10--8-7--7----7-------------------------------|
G|----------------------------------------9b---9b-7---7----------------------|
D|--------------------------------------------------9------------------------|
A|---------------------------------------------------------------------------|
E|---------------------------------------------------------------------------|

e|---------------17----------------------------------------------------------|
B|--------15-17b----17b---17b-15-17-15-14------------------------------------|
G|--14-16-----------------------------------11-11-11-11-9-7-9-7-6-4----------|
D|---------------------------------------------------------------------------|
A|---------------------------------------------------------------------------|
E|---------------------------------------------------------------------------|

Just listen to the song and you'll be able to find when to play each part. If

| /  slide up
| \  slide down
| h  hammer-on
| p  pull-off
| ~  vibrato
| +  harmonic
| x  Mute note
| b  full bend
===============================================================================
            

comments powered by Disqus
↑ Back to top | Parokya Ni Edgar Tabs for Halaga. Lyrics for acoustic guitar and electric guitar. Tablatures and chords are parodies/interpretations of the original songs. You may use it for private study, scholarship, research or language learning purposes only