» » »

Parokya Ni Edgar, Gitara Tabs (ver.7)

Artists:  A B C D E F G H I J K L M N O P Q R S T U V W X Y Z # 

Gitara Tabs (ver.7)

Parokya Ni Edgar Tabs
 Rating:
4.4/5 (7 votes)
Gitara lessons Tabs too difficult? Try these video lessons and learn fast
1
                (Intro)
INTRO
1|--------------------7-5-7-8-15------|
2|---------7---8/10-8-----------------|
3|--7-7--9-----------------------7----|
4|----------------------------7-9-9-7-|
5|------------------------------------|
6|------------------------------------|

1|--------------------7-5-7-8-12-10-7-8-7-|
2|---------7---8/10-8--------------------8|
3|--7-7--9--------------------------------|
4|----------------------------------------|
5|----------------------------------------|
6|----------------------------------------|

ADLIB
1|------------------------------12-10-7--8-7-5-7-5|
2|------7-8-7---------7-8-10-12-------------------|
3|7-7h9-------7---7-9-----------------------------|
4|------------------------------------------------|
5|------------------------------------------------|
6|------------------------------------------------|

1|-8/10-10-7-8-10-12--10-7----8-7------------------7-8-10-12|
2|-------------------------10----8-10-8--7-8-10-12----------|
3|----------------------------------------------------------|
4|----------------------------------------------------------|
5|----------------------------------------------------------|
6|----------------------------------------------------------|
            
Submit corrections

comments powered by Disqus
↑ Back to top | Parokya Ni Edgar Tabs for Gitara. Lyrics for acoustic guitar and electric guitar. 1 Tablatures and chords are parodies/interpretations of the original songs. You may use it for private study, scholarship, research or language learning purposes only