» » »

Gitara Tabs (ver.5)

Artists:  A B C D E F G H I J K L M N O P Q R S T U V W X Y Z # 

Gitara Tabs (ver.5)

Parokya Ni Edgar
Rating:
0/5 (0 votes)

Hard to play? Try these video lessons and learn fast.
                Track No. 4
Song Length: 4:02
Mobile #: 09167911883/09224191287

"Mga dre sigrado ko lahat ng babae na tutugtugan nyo ng kantang toh mapapakilig nyo."



NOTE:Down,up,down up ang strum pero mga dre ung "Dsus-D-D9-D" puro pataas ang strum


[Intro]: G-Em-C9-Dsus-D-D9-D (3x)
       
	
	Guitar 2

 e|--------------------------5/7-5-7-8-///15~------------------------|
 B|------------------8/10-8------------------------------------------|
 G|----5/7-/-9-9/11--------------------------------------------------|
 D|--------------------------------------------9h12-7h9p7------------|
 A|------------------------------------------------------------------|
 E|------------------------------------------------------------------|

 e|-------------------------------5/7-5-7-8-/12-10-7-7h8-5-----------|	
 B|------------------8/10-8-10-8---------------------------8~--------|
 G|----5/7-/-9-9/11--------------------------------------------------|	2x all..
 D|------------------------------------------------------------------|
 A|------------------------------------------------------------------|
 E|------------------------------------------------------------------|
	

[Verse 1]

   G                     Em
Bakit pa kailangang magbihis
      C9               Dsus-D-D9-D
sayang din naman ang porma
   G                 Em
lagi lang namang may sisingit
 C9               Dsus-D-D9-D
sa tuwing tayo'y magkasama


[Verse 2]

  G                   Em
Bakit pa kailangan ng rosas
       C9           Dsus-D-D9-D
kung marami namang mag-aalay sayo
  G             Em
uupo nalang at aawit
      C9           Dsus-D-D9-D
maghihintay ng pagkakataon


[Refrain]

Am7                     D- Dsus
 Hahayaan na lang silang
        G            D      Em 
 magkandarapa na manligaw sayo
  Am7         D- Dsus
 Idadaan na lang kita sa 
    G     D     Em 
 awiting kong ito
  
  Am7             D     G-D-Em           
 Sabay ang tugtog ng gitara
  Am7        D     
 Idadaan nalang sa gitara


Guitar 1: G-Em-C9-Dsus-D-D9-D
	  G-Em-C9-Dsus-D-D9-D...


Guitar 2:

 e|--------------------------5/7-5-7-8-///15~------------------------|
 B|------------------8/10-8------------------------------------------|
 G|----5/7-/-9-9/11--------------------------------------------------|
 D|--------------------------------------------9h12-7h9p7------------|
 A|------------------------------------------------------------------|
 E|------------------------------------------------------------------|

 e|-------------------------------5/7-5-7-8-/12-10-7-7h8-5-----------|	
 B|------------------8/10-8-10-8---------------------------8~--------|
 G|----5/7-/-9-9/11--------------------------------------------------|	2x all..
 D|------------------------------------------------------------------|
 A|------------------------------------------------------------------|
 E|------------------------------------------------------------------|


[Verse 3]
	
   G                Em
Mapapagod lang sa kakatingin
  C9                Dsus-D-D9-D
Kung marami namang nakaharang
 G                 Em
Aawit nalang at magpaparinig
    C9             Dsus-D-D9-D
ng lahat ng aking nadarama


[Refrian 2]

Am7              D- Dsus
 Pagbibigyan na lang silang
        G            D      Em 
 magkandarapa na manligaw sayo
  Am7         D- Dsus
 Idadaan na lang kita sa 
    G     D     Em 
 awiting kong ito
  
  Am7             D     G-D-Em           
 Sabay ang tugtog ng gitara
  Am7        D     
 Idadaan nalang sa gitara


[Adlib/Solo]
Guitar 1- G-Em/C-Cadd9-Dsus-D-D9-D
	  G-Em/C-Cadd9-Dsus-D-D9-D...

Guitar 2
 e|-------------------------------------12-10-----------------------------|
 B|--------7-8-7---------7-8-10-10/12---------12-12/13-12-10-10/12-10-----|
 G|----7-9-------7---7-9--------------------------------------------------|
 D|-----------------------------------------------------------------------|
 A|-----------------------------------------------------------------------|
 E|-----------------------------------------------------------------------|

 e|----10-10-7-8-8/10-12-10-7---7-8-7------------------7-8-10-7-10/12-----|
 B|-----------------------------------8-8/10-8--7-8-10--------------------|
 G|-----------------------------------------------------------------------|
 D|-----------------------------------------------------------------------|
 A|-----------------------------------------------------------------------|
 E|-----------------------------------------------------------------------|


[Refrian 2]

Am7              D- Dsus
 Pagbibigyan na lang silang
        G            D      Em 
 magkandarapa na manligaw sayo
  Am7         D- Dsus
 Idadaan na lang kita sa 
    G     D     Em 
 awiting kong ito
  
  Am7             D     G-D-Em           
 Sabay ang tugtog ng gitara
  Am7        D     
 Idadaan nalang sa gitara


Guitar 1: G-Em-C9-Dsus-D-D9-D
	  G-Em-C9-Dsus-D-D9-D...


Guitar 2:

 e|--------------------------5/7-5-7-8-///15~------------------------|
 B|------------------8/10-8------------------------------------------|
 G|----5/7-/-9-9/11--------------------------------------------------|
 D|--------------------------------------------9h12-7h9p7------------|
 A|------------------------------------------------------------------|
 E|------------------------------------------------------------------|

 e|-------------------------------5/7-5-7-8-/12-10-7-7h8-5-----------|	
 B|------------------8/10-8-10-8---------------------------8~--------|
 G|----5/7-/-9-9/11--------------------------------------------------|	2x all..
 D|------------------------------------------------------------------|
 A|------------------------------------------------------------------|
 E|------------------------------------------------------------------|

[End]


Nagpapasalamat nga pala ako sa mga nagturo sakin sila Jhoboy Jundos, R.A Ugay, Ivu
Chidrome, at pinakamagaling sa lahat Herman Grijaldo
            
Hard to play? Try these video lessons and learn fast. | Correct




comments powered by Disqus
↑ Back to top | Tablatures and chords are parodies/interpretations of the original songs. You may use it for private study, scholarship, research or language learning purposes only