>
 >
Eman

Eman Guitar Tabs

Parokya Ni Edgar - Eman chords, tabs, tablatures, lyrics

Guitar lessons | Add/correct | Request | Top 50 tabs Artists:  A B C D E F G H I J K L M N O P Q R S T U V W X Y Z 0-9

Eman Guitar Tabs – Parokya Ni Edgar

CD, Sheet music, Poster

Do you like Eman? Share with your friends now
Tabs
-------------------------------------------------------------------------------
-------------------------------------------------------------------------------

By-Francis
Location - Carmelite, Lucena City
Cp #- 09283150081
shc

Note-
GtrI-e b g d a E- Darius Semaņa(lead)
GtrII-e b g d a E-Gab Cheeky (rhythm)
-lahat letter sa taas ng tab ay chords  ng GtrII(rhythm)timingan nyo na lang

panada:
~-alam mo na un
h-pukpok
p-angat daliri
/-padulas
^-banat ng konte


Tuning:  
 Bm                            A         
|-----2~--0~------------------------------------------------------------|
|----3~------3-2h3~--/10-1010--8-7--2h3--2p0----------------------------|
|---4~---------------------------------------2--------------------------|
|--4~-----------------------------------------2-------------------5~----|
|-2~--------------------------------------------4-0-----0-4-5-7p5-------|
|-----------------------------------------------------------------------|
  G                              F#
|----------3~--/5p3--2h3p0-2~---------------------------|
|--------3--------------------/5-/3-2h3-----------------|
|----4-5------------------------------------------------|
|--5----------------------------------------------------|
|-5-----------------------------------------------------|
|-------------------------------------------------------|


Verse-a
  Bm               A       G                                F#
eman.....         ewan.....
|-2~----/5-55-3-2------------------------------------------------------|
|-3~--------------2~-22-3-5-33333333-55555555-77777777-8888888-/1212~\-|
|-4~--------------2~---------------------------------------------------|
|-4~--------------2~---------------------------------------------------|
|-2~--------------0~---------------------------------------------------|
|----------------------------------------------------------------------|

Interlude-
  Bm                                              A
|-101010--9-------- -------|--101010--9--------------------------|
|-----------12-10--10/12~\-|------------12-10--10/12-10----------|
|--------------------------|-----------------------------9h11-9--|
|--------------------------|-------------------------------------|
|--------------------------|-------------------------------------|
|--------------------------|-------------------------------------|
                  G                             F#
|-101010--9---------------------------------------------------------|
|-----------12-10--10/12~\------------------------------------------|
|--------------------------11p9----9h11---11p9----------------------|
|-------------------------------12-------------12-9h12-11h12p9-11~--|
|-------------------------------------------------------------------|
|-------------------------------------------------------------------|

F#
|-----------------------------|
|-----------------------------|
|-----------------------------|
|-9~--8-9~--11--12-11-9-8-9~--|
|-----------------------------|
|-----------------------------|


Verse-
 G         D                        A                  Bm
|--~--|-3-2~-2-3-2-3/5-3--2-3-2---|------------------|---------------------|
|--~--|-3-3~--------------------3-|--2-3-2---2-3-2---|-0-2-3-0~-0-2-3-0-2-3|
|--~--|---------------------------|--------2-------2-|---------------------|
|-----|---------------------------|------------------|---------------------|
|-----|---------------------------|------------------|---------------------|
|-----|---------------------------|------------------|---------------------|
 Bm                     G       D                     F#
|-2~--|---------------|-3~--|-3-2~-2-3-2-3/5-3--2-3-2---|
|-3~--|-0-2-3--0-2-3--|-3~--|-3-3~--------------------5-|
|-4~--|---------------|-4~--|---------------------------|
|-----|---------------|-----|---------------------------|
|-----|---------------|-----|---------------------------|
|-----|---------------|-----|---------------------------|

Chorus-
  Bm           A         G          F#
|----------------------------------------------|
|----------------------------------------------|
|----------------------------------------------|
|-99-99-99-9--7-77-77-7--55-55-55-5-44-44-4-4--|
|-99-99-99-9--7-77-77-7--55-55-55-5-44-44-4-4--|
|-77-77-77-7--5-55-55-5--33-33-33-3-22-22-2-2--|

Interlude-
  Bm                                          A                       G

|-101010--9----------------|-101010-9----12/14-12-9------12/14-12--10-12-14--|
|-----------12-10--10/12~\-|---------12-10---------12-10---------------------|
|--------------------------|-------------------------------------------------|
|--------------------------|-------------------------------------------------|
|--------------------------|-------------------------------------------------|
|--------------------------|-------------------------------------------------|
                               F#
|--------------------------------------------------------------------|
|-12---------------------------------12-11-12--14-15-14~--12-11-12~--|
|---12p11h12------------------12-11~---------------------------------|
|-----------12p11h12--9-11-12----------------------------------------|
|--------------------------------------------------------------------|
|--------------------------------------------------------------------|

Do verse
Do chorus-                               G
|-------------------------------------15-|-19--17-15-14~--|
|---------------------------15--15h17----|----------------|
|----------------12---14h16--------------|----------------|
|------12---12h14------------------------|----------------|
|-12h14----------------------------------|----------------|
|----------------------------------------|----------------|

                        D                          A         
|-12-14-15---------------------------------------|-------------------------|
|----------12-12h13-12---------------------------|--------------------11^~-|
|----------------------14-12--11-11h12-11--------|---------------11-12-----|
|-----------------------------------------12-12~-|-/14-1414-1414~----------|
|------------------------------------------------|-------------------------|
|------------------------------------------------|-------------------------|

  F#                                          G      
|----------14~-------14~--------------14-----------------15~------------17-|
|-11-12-14-----14-11-----11-11--14-11-----14---12--15-----------15---------|
|-------------------------------------------15--------16----1616^---16-----|
|--------------------------------------------------------------------------|
|--------------------------------------------------------------------------|
|--------------------------------------------------------------------------|

 D
|--17-15-14---------------------|
|------------15-----------------|
|----------------12-11----------|
|----------------------12-------|
|-------------------------12~---|
|-------------------------------|
  A                                                     F#
|-------------------------------------------14-15-14---------------|
|-/17---17-17--17-17--15-14--- 17-17--17-17----------17-15-14-12~--|
|------------------------------------------------------------------|
|------------------------------------------------------------------|
|------------------------------------------------------------------|
|------------------------------------------------------------------|

Bridge-

G         D                             A                  F#           
ngunit...problema ....                sa kakainom ...  na...
|------------|------2-3-2-3/5-3--2-3-2---|------------|------------------|
|------------|-------------------------3-|------------|---3-2p0----------|
|------------|---------------------------|------------|--------4-3h4~----|
|------------|---------------------------|------------|------------------|
|------------|---------------------------|------------|------------------|
|------------|---------------------------|------------|------------------|
  G          D              A                Bm
    payo...
|------------|-0-0-0-2/3-2----3-2-0------------|------------------|
|------------|----------------------5-4h5--5---|-----3-2----------|
|------------|---------------------------------|---2-----2/4~-----|
|------------|---------------------------------|-4----------------|
|------------|---------------------------------|------------------|
|------------|---------------------------------|------------------|  


Chorus-
  Bm           A         G          F#
|----------------------------------------------|
|----------------------------------------------|
|----------------------------------------------|
|-99-99-99-9--7-77-77-7--55-55-55-5-44-44-4-4--|2X
|-99-99-99-9--7-77-77-7--55-55-55-5-44-44-4-4--|
|-77-77-77-7--5-55-55-5--33-33-33-3-22-22-2-2--|


Interlude-
  Bm                                              A
|-101010--9-------- -------|--101010--9--------------------------|
|-----------12-10--10/12~\-|------------12-10--10/12-10----------|
|--------------------------|-----------------------------9h11-9--|
|--------------------------|-------------------------------------|
|--------------------------|-------------------------------------|
|--------------------------|-------------------------------------|
                  G                                
|-101010--9---------------------------------------------------------|
|-----------12-10--10/12~\------------------------------------------|
|--------------------------11p9----9h11---11p9----------------------|
|-------------------------------12-------------12-9h12-11h12p9-11~--|
|-------------------------------------------------------------------|
|-------------------------------------------------------------------|

                          F#
|-----------------------------|
|-----------------------------|
|-----------------------------|
|-9~--8-9~--11--12-11-9-8-9~--|
|-----------------------------|
|-----------------------------|

outro-optional
(tantsa ko lang ito.. di ako sure dito)
GtrI
|------------------------------------------------7---------------------|
|-------------------------------------7-8p7-8-10---10-8-7h8-7----------|
|---------------------------------7-9-------------------------9-7------|
|-----------------7---9-8~----8-9---------------------------------9-8--|
|---------7-9-10----9--------------------------------------------------|
|--7-9-10--------------------------------------------------------------|



|-7-9-10-9-10-12-10-12-/14-\\\\\\\\\\\\\\\\\\\\\\\\\\\\\\\----------|
|-------------------------------------------------------------------|
|-------------------------------------------------------------------|
|-------------------------------------------------------------------|
|-------------------------------------------------------------------|
|-------------------------------------------------------------------|



GtrII
|---------------------------------------------------------------------------|
|---------------------------------------------------------(elevens)---------|
|--444444444444/666666666666/777777777777/9999999999/1111111111111111111111-|
|--xxxxxxxxxxxx-xxxxxxxxxxxx-xxxxxxxxxxxx-xxxxxxxxxx-xxxxxxxxxxxxxxxxxxxxx--|
|--222222222222/444444444444/555555555555/7777777777/999999999999999999999--|
|---------------------------------------------------------------------------|



ito ay  para sa mga Lasenggong tulad mo!!!!!!!!!!wahahahaha....pogi ako!!!


===============================================================================





Comments


Popular Parokya Ni Edgar tabs & chords
Akala Chords
Alumni Homecoming 1 Chords
How To Make A Love Song 2 Chords
Sa Bigotilyo Chords
Iwanan Mo Na Siya Tabs
Maniwala Ka Sana 4 Tabs
Pangarap Lang Kita 3 Tabs
Pumapatak Ang Ulan 1 Tabs
Ted Hannah (Intro) Tabs
Muli Ukulele


Song lyrics



↑ Back to top | Tablatures and chords are parodies/interpretations of the original songs. You may use it for private study, scholarship, research or language learning purposes only
© 2014 AZChords.com Contact us | Privacy policy | DMCA | Add/correct tabs | Request tabs | Top 50 tabs