» » »

Parokya Ni Edgar, Don't Touch My Birdie Tabs (ver.4)

Artists:  A B C D E F G H I J K L M N O P Q R S T U V W X Y Z # 

Don't Touch My Birdie Tabs (ver.4)

Parokya Ni Edgar Tabs
 Rating:
4/5 (4 votes)
Don't Touch My Birdie lessons Tabs too difficult? Try these video lessons and learn fast
                Stanza I

A	   E
Kapag ako'y nababato
F#m	  E
pinaglalaruan ko ang birdie ko
F#m	    E
ang cute-cute naman kasi
  D	   	E
kaya ko siya binili

Stanza II
(do chords stanza I)

My birdie is my best friend
 (my best friend)
Ang dami naming maliligayang sandali
madalas ko siyang pinapakain ng bird sid
mahal kita o birdie ko, huwag kang lalayo


Chorus I:

A	     E
don't touch my birdie
	     F#m
(dont touch my birdie)
   E
resist temptation please
F#m	     E
you don't have to grab my birdie
D	     E
just call it, and it will come

Adlib:
(distortion)
A-E-F#m-E-
F#m-E-D-E-

e|------------------------------------------19^--17-16-16h17-16-----------------------|
B|-------14----15----17-----(17^)-17--17\15---------------------17-(17^)--(17^)-14-12-|
G|-13/14----14----14----14------------------------------------------------------------|
D|------------------------------------------------------------------------------------|
A|------------------------------------------------------------------------------------|
E|------------------------------------------------------------------------------------|

e|--------------------------------9-10-12-10-9----------------|
B|-9/10-9-10/12-(12^)\10--10-9-10--------------12-10-9--------|
G|----------------------------------------------------11-9----|
D|------------------------|------------------------------|----|
A|------------------------|------------------------------|----|
E|------------------------********************************----|
				^(fast)^

e|-----------------------------5px-7px-9px-10px-12v~--|
B|---------------------7-5-5h7------------------------|
G|-----------7-6-7-7/9--------------------------------|
D|-6/7-6-7-9------------------------------------------|
A|----------------------------------------------------|
E|----------------------------------------------------|

Stanza III
(do chords of stanza I)

ang birdie ko ay nakakatuwa
parang cobra na mahilig mantuka
pag nilabas na mula sa kulungan
tuloy-tuloy na ang aming kasiyahan


Stanza IV
(do chords of stanza I)

di naman ako madamot talaga
ayoko lang na hinahawakan siya ng iba
ang birdie ko ay medyo masungit
konting hawak lang siya ay magagalit


Chorus II:

A	     E
don't touch my birdie
	     F#m
(dont touch my birdie)
   E
resist temptation please
F#m	     E
you don't have to grab my birdie
D	     E
just call it, and it will come
A-E	F#m-E-
it will come


Bridge:
D		C#m
wag ka sanang magalit sa akin
Bm				A
tuwing ang birdie ang birdie ko ay aking hihimasin
D	   A
sana maunawaan mo
F#m
mahal na mahal ko ang birdie ko
E
pati ang itlog nito


Repeat chorus I(2x)

Outro:
(distortion)
A-E-F#m-E
F#m-E-D-E

e|----------------------------------------------------------------------------------12----12-|
B|---------------------------------------(14^)-(14^)-(14^)-14\12-10----10h12-10-9h10--9h10---|
G|-----6---7---9---9/11^--11\9-9/11-9/11----------------------------11-----------------------|
D|-6/7---7---7---7---------------------------------------------------------------------------|
A|-------------------------------------------------------------------------------------------|
E|-------------------------------------------------------------------------------------------|

e|---------9-10-9/10-------------------------------------------------5px-7px-9px-10px-12~----|
B|------10-----------10-----------------------9-9h10-9-------------9-------------------------|
G|-9-11-----------------11^-9------------9-11----------9-9/11-9-11---------------------------|
D|----------------------------11^-9--11^-----------------------------------------------------|
A|-------------------------------------------------------------------------------------------|
E|-------------------------------------------------------------------------------------------|
            
Submit corrections

comments powered by Disqus
↑ Back to top | Parokya Ni Edgar Tabs for Don't Touch My Birdie. Lyrics for acoustic guitar and electric guitar. Tablatures and chords are parodies/interpretations of the original songs. You may use it for private study, scholarship, research or language learning purposes only