» » »

Chikinini Tabs (ver.4)

Artists:  A B C D E F G H I J K L M N O P Q R S T U V W X Y Z # 

Chikinini Tabs (ver.4)

Parokya Ni Edgar
Rating:
0/5 (0 votes)

Hard to play? Try these video lessons and learn fast.
                -------------------------------------------------------------------------------
                             CHIKININI – Parokya ni Edgar
-------------------------------------------------------------------------------

INTRO: Em-C

e|--x---------------x------------------x-----0-------x--------|
B|--0-0---3------0--1-1h3-0h1p0--------0-0---3-----0-1-1---3--|
G|--0---0----0-2----0-----------0------0---0---0-2---0---0-0--|
D|--2---------------2-------------2----2-------------2--------|
A|--2---------------3---------------3--2-------------3-----5--|
E|--0---------------x------------------0-------------x--------|


         Em           C
  Chikinini....chikinini
Em
  Merong isang babae
C
  na mahilig sa lalake
Em
  Walang inatupag
C
  kundi magpadale
Em
  Nakasabay ko sa jeepney
C
  Aking napuna wala syang panty
Em
  May nakita nung sya'y nabosohan
C
  Meron syang chikinini sa kuwan!


CHORUS:

Em               C
  Markang Pruebo,  ika'y bistado
Em                        C    D
  Akala ko tattoo, chikinini
Em               C
  Markang Pruebo,  ika'y bistado
Em                        C     Em
  Akala ko tattoo, chikinini...ito

ADLIB:

e|--14h15-12~----14-12-----15----14-12------15----14-12-----15----14----14~--|
B|------------12--------12----12---------12----12--------12----12----12------|
G|---------------------------------------------------------------------------|
D|---------------------------------------------------------------------------|
A|---------------------------------------------------------------------------|
E|---------------------------------------------------------------------------|

e|-----12----14----14-----15----14-12-----15----14-12-----15----14-12--|
B|--12----12----12-----12----12--------12----12--------12----12--------|
G|---------------------------------------------------------------------|
D|---------------------------------------------------------------------|
A|---------------------------------------------------------------------|
E|---------------------------------------------------------------------|


e|-----15----14----14~----12----14----14~\--|
B|--12----12----12-----12----12----12-------|
G|------------------------------------------|
D|------------------------------------------|
A|------------------------------------------|
E|------------------------------------------|


Em
  Meron akong kaklase
C
  na isang lalake
Em
  Napagbabalitaan
C
  pumapatol sa syoke
Em
  Nakasabay ko sa banyo
C
  Dumiretso siya sa inodoro
Em
  May nakita nung sya'y tumatae
C
  Meron syang chikinini sa ____


CHORUS:

Em               C
  Markang Pruebo,  ika'y bistado
Em                        C    D
  Akala ko tattoo, chikinini
Em               C
  Markang Pruebo,  ika'y bistado
Em                        C     Em
  Akala ko tattoo, chikinini...ito

ADLIB:

e|---------------------------------------------------------------------------|
B|-------------------------------8+---------13~------------------------------|
G|------------------------------------11h12------12-11-9-11------------------|
D|------2h4/10—9p7h9—7h9-7-5--------------------------------10-9-7-9-9+------|
A|----2----------------------5h7---------------------------------------------|
E|--0------------------------------------------------------------------------|

e|---------------------------------------------------------------------------|
B|--7h8p7------------------------7h8p7-----7b-5~--10/12~-10b—12p10----10-----|
G|-------------------------------------9-7-------------------------12----12--|
D|--------10-9-7------------5-7----------------------------------------------|
A|---------------10-9-7-5-7--------------------------------------------------|
E|---------------------------------------------------------------------------|

e|---------------------------------------------------------------------------------|
B|------------------------------12-13-15-17b-17-----------------------12-10-8~-----|
G|------------------------12-14-----------------16-14-16-14h16p14h16---------------|
D|--12h14-----------12-14-------------------------------------------------------2--|
A|------------12-14-------------------------------------------------------------2--|
E|---------12-------------------------------------------------------------------0--|


e|----------------------|
B|--7/8~---15~---17~----|
G|----------------------|
D|----------------------|
A|----------------------|
E|----------------------|

Em          C
  Chini....chini....


Em
  Ano man ang yong ginagawa
C
  na pagtago sa amin
Em
  Ay siguradong bistado
C
  sa akin!


CHORUS:

Em               C
  Markang Pruebo,  ika'y bistado
Em                        C    D
  Akala ko tattoo, chikinini
Em               C
  Markang Pruebo,  ika'y bistado
Em                        C     Em
  Akala ko tattoo, chikinini...ito

Outro:

e|-------------------------------------------------------------15/17-15---------|
B|-----------12h13p12h13p12—10h12-8------------8h10p8-12h13p12----------15h17---|
G|--------4~------------------------9~-------7----------------------------------|
D|--4-5/7------------------------------9-7-9------------------------------------|
A|------------------------------------------------------------------------------|
E|------------------------------------------------------------------------------|

hi to all...kung may mali man po ito pakitama na lang...saka ung outro nga pala kulang 
banding huli lang naitab ko...cguro may tab na mas kompleto pa dito pero try niyo na rin 
mga parokya fans jan paad ako sa friendster ha...thnx...


| /  slide up
| \  slide down
| h  hammer-on
| p  pull-off
| ~  vibrato
| +  harmonic
| x  Mute note
            
Hard to play? Try these video lessons and learn fast. | Correct




comments powered by Disqus
↑ Back to top | Tablatures and chords are parodies/interpretations of the original songs. You may use it for private study, scholarship, research or language learning purposes only