>
 >
Boys Do Fall In Love

Boys Do Fall In Love Guitar Tabs

Parokya Ni Edgar - Boys Do Fall In Love chords, tabs, tablatures, lyrics

Guitar lessons | Add/correct | Request | Top 50 tabs Artists:  A B C D E F G H I J K L M N O P Q R S T U V W X Y Z 0-9

Boys Do Fall In Love Guitar Tabs – Parokya Ni Edgar

CD, Sheet music, Poster

Do you like Boys Do Fall In Love? Share with your friends now
ChordsChords v2TabsUkulele
TAB-FOR Lead Guitar
CHORDS-FOR Rhythm Guitar

Intro- C5...
|------------------------------|----------------------------------|
|------------------------------|----------------------------------|
|-9-7-5-12--9/10\9-5--5555555--|--9-7-12-9--9/10\9-5--5555555-----|
|-x-x-x--x--x-x--x-x--xxxxxxx--|--x-x-x--x--x-x--x-x--xxxxxxx-----|
|-7-5-3-10--7/8-\7-3--3333333--|--7-5-10-7--7/8-\7-3--3333333-----|
|------------------------------|----------------------------------|

verse-C5 D5 2x
  Baby Said...                              cry now....
|---------------------------------------------------------------------------|
|---------------------------------------------------------------------------|
|-555555555555555555555555555555555555555555-7777777777777777777777777777---|
|-555555555555555555555555555555555555555555-7777777777777777777777777777---|
|-333333333333333333333333333333333333333333-5555555555555555555555555555---|
|---------------------------------------------------------------------------|
  ****************************************** ****  ** *    ****  ** *   


  love is...                                 cry now....
|---------------------------------------------------------------------------|
|---------------------------------------------------------------------------|
|-555555555555555555555555555555555555555555-7777777777777777777777777777---|
|-555555555555555555555555555555555555555555-7777777777777777777777777777---|
|-333333333333333333333333333333333333333333-5555555555555555555555555555---|
|---------------------------------------------------------------------------|
  ****************************************** ****  ** *    ****  ** * 
  

Refrain -F G   C 2x
|------------------------------------|-----------------------------------|
|------------------------------------|-----------------------------------|
|--------------------9-7-5-12-121212-|--------------------9-7-12-9-999---|
|-33333333-555555555-x-x-x-x--x-x-x--|-33333333-555555555-x-x-x--x-xxx---|
|-33333333-555555555-7-5-3-10-101010-|-33333333-555555555-7-5-10-7-777---|
|-11111111-333333333-----------------|-11111111-333333333----------------|

Chorus- C Am F G  F-G - C Am F  - F G C F G 

 boys do  fall in love they make time  making love on a Saturday night
|----------------------------------------------------------------|
|----------------------------------------------------------------|
|-5-------------------------------------5------------------------|
|-5---7----3------5-55---33---5-555-----5-----7-77------3-333-3--|
|-3---7----3------5-55---33---5-555-----3-----7-77------3-333-3--|
|-----5----1------3-33---11---3-333-----------5-55------1-111-1--|
.. heart beat as they dance in the  street to a radio
|----------------------------------------------------------------|
|----------------------------------------------------------------|
|---------------------5------------------------------------------|
|--3-----5------------5-------------3------------5---------------|
|--3-----5------------3-------------3------------5---------------|
|--1-----3--------------------------1------------3---------------|

post chorus- F G C 
 b-b-b-boys fall in love
|----------------------------------------------------------------|
|----------------------------------------------------------------|
|-------------5---9-7-12-9-999-----------------------------------|
|-333---5-55--5---x-x-x--x-xxx-----------------------------------|
|-333---5-55--3---7-5-10-7-777-----------------------------------|
|-111---3-33-----------------------------------------------------|


Do verse-Do chorus 2x

|-----------------------------------------------------|
|-----------------------------------------------------|
|-------------5-5555555-------------------------------|
|-333---5-55--5-5555555-------------------------------|
|-333---5-55--3-3333333-------------------------------|
|-111---3-33------------------------------------------|

PRE-BRIDGE-C5
BBBB-BOYS..BOYS...
|------------------------------|----------------------------------|
|------------------------------|----------------------------------|
|-9-7-5-12--9/10\9-5--5555555--|--9-7-12-9--9/10\9-5--5555555-----|
|-x-x-x--x--x-x--x-x--xxxxxxx--|--x-x-x--x--x-x--x-x--xxxxxxx-----|
|-7-5-3-10--7/8-\7-3--3333333--|--7-5-10-7--7/8-\7-3--3333333-----|
|------------------------------|----------------------------------|
BRIDGE- F G 3X
Boys Boys Boys-bohohooys3x...
|----------------------------------------------------------------|
|----------------------------------------------------------------|
|-9---7----77---777-----9---7----77---777----9---7----77---777---|
|-x---x----xx---xxx-----x---x----xx---xxx----x---x----xx---xxx---|
|-7---5----55---555-----7---5----55---555----7---5----55---555---|
|----------------------------------------------------------------|
DO CHORUS2X-

OUTRO-F G C 3X

|-------------------------------|
|-------------------------------|
|-------------5-5555555---------|
|-333---5-55--5-5555555---------|2X
|-333---5-55--3-3333333---------|
|-111---3-33--------------------|


|------------------------|
|------------------------|
|-------------5----------|
|-333---5-55--5----------|END
|-333---5-55--3----------|
|-111---3-33-------------|





Comments


Popular Parokya Ni Edgar tabs & chords
Kailan Pa 1 Chords
Mang Jose Chords
Mang Jose 2 Chords
Muli Chords
One And Only You 4 Chords
Para Syo Chords
Pangarap Lang Kita 1 Tabs
Maybe Someday Ukulele
Papa Cologne Ukulele
Sampip Ukulele


Song lyrics



↑ Back to top | Tablatures and chords are parodies/interpretations of the original songs. You may use it for private study, scholarship, research or language learning purposes only
© 2014 AZChords.com Contact us | Privacy policy | DMCA | Add/correct tabs | Request tabs | Top 50 tabs