>
 >
Beh Buti Nga

Beh Buti Nga Guitar Tabs

Parokya Ni Edgar - Beh Buti Nga chords, tabs, tablatures, lyrics

Guitar lessons | Add/correct | Request | Top 50 tabs Artists:  A B C D E F G H I J K L M N O P Q R S T U V W X Y Z 0-9

Beh Buti Nga Guitar Tabs – Parokya Ni Edgar

CD, Sheet music, Poster

Do you like Beh Buti Nga? Share with your friends now
Tabs
 Beh Buti Nga
 by Parokya ni Edgar

 Standard Tuning(ebgdae)

 | A-577xxx       
 | B-x244xx
 | C-x355xx
 | D-x577xx
 | E-x799xx
 | G-355xxx
 | F#m-244xxx
 
 Intro:
   E                    E                         
 |---------------------------------------------|
 |---------------------------------------------|
 |-8/9-99999------------8/9-99999--------------|(2x)
 |-8/9-99999------------8/9-99999--------------|
 |-6/7-77777------------6/7-77777--------------| 
 |---------------------------------------------|
 Verse:
   E                            E
 |---------------------------------------------------|
 |---------------------------------------------------|
 |-8/9-99999--------------------8/9-99999------------|
 |-8/9-99999--------------------8/9-99999------------|
 |-6/7-77777--------------------6/7-77777------------| 
 |---------------------------------------------------|
   Noong nililigawan pa kita hindi mo ako pinapansin
        A                          E
 |------------------------------------------------------|
 |------------------------------------------------------|
 |---------------------------------8/9-99999------------|
 |-----/77777----------------------8/9-99999------------|
 |-----/77777----------------------6/7-77777------------| 
 |-----/55555-------------------------------------------|
   Ang gusto mo ay taga La Salle wala kang type sa akin
       F#m                                A
 |--------------------------------------------------------------------|
 |--------------------------------------------------------------------|
 |--------------------------------------------------------------------|
 |----/44444------------------------------/77777----------------------|
 |----/44444------------------------------/77777----------------------| 
 |----/22222------------------------------/55555----------------------|
  Ang sabi mo pa nga,"sa'n mo nabili yang shorts mong blue and green?"
      B                         B                     D      B (repeat intro)
 |-----------------------------------------------------------------------|
 |-----------------------------------------------------------------------|
 |-----------------------------------------------------------------------|
 |----/44444-------------------/44444-----------------777----44----------|
 |----/44444-------------------/44444-----------------777----44----------| 
 |----/22222-------------------/22222-----------------555----22----------|
  Ang puso ko'y dinurog mo,ang puso ko'y dinurog mo sinaktan at binitin
 Verse:
    E                           E
  Noong nililigawan ka namin,hindi mo kami pinapansin
     A                                E
  Porket kami'y hindi taga La Salle wala kang type sa amin
      F#m                         A
  Ang sabi mo pa nga"kadiri to death ambaho ng pwet"
    B                   B                   D      B (repeat intro)
  Iniisnab-isnab kami,iniisnab-isnab kami sinaktan at binitin
 Chorus:
   A     A    A        D   B        E
  Ahumm-ahumm beh,buti nga!beh,buti nga!
   D                       A
  Iniwan ka ng young La Sallista
     C                      G    A        D
  Ngayon malungkot ka't nag-iisa,beh,buti nga!
  B        E       E                A (repeat intro)
  Beh,buti nga!beh,beh,beh,beh,buti nga!
 Verse:
    E                        E
  Noon ay crush na crush kita hindi mo ako pinapansin
      A                  E
  Ang gusto mo ay bata wala kang type sa akin
      F#m           A
  Ang sabi mo pa nga,"Aah..ano nga ba ulit yo'n?
 F#m                            A
  "Yun yung kasama natin sa Donato"
  
  "Uhm..nakakatawa yun eh,aah!!
    B                 B                  D      B
  Iisnab-isnab ako,iniisnab-isnab ako, sinaktan at binitin

 Adlib:
   E                     E
 |------------------------------------------------|
 |-10-8---8-8-10-8---8-8-10-8---8-8--8-10-8-------| 
 |------9----------9----------9-------------9/----|
 |------------------------------------------------|
 |------------------------------------------------| 
 |------------------------------------------------|
    E                        E
 |-(12)-15-12-(12)-(12)-12~--12-15-12-15-12-15-(12)-12~-|
 |------------------------------------------------------| 
 |------------------------------------------------------|
 |------------------------------------------------------|
 |------------------------------------------------------| 
 |------------------------------------------------------|
   A                                 E
 |-19b-17p15-------10-(12)-(10)-10~------------------------|
 |-----------17p15---------------------------------(8)-12b-| 
 |---------------------------------------7h9---7h9---------|
 |----------------------------------/9-9-----9-------------|
 |---------------------------------------------------------| 
 |---------------------------------------------------------|
 F#m       A           B                           D        B (repeat intro)
 |------------------5------------------------------10/12-15-12p10-t19~-|
 |--------7-------5--------10/12~----10/12~10/12~----------------------| 
 |----3-6----2-6*------------------------------------------------------|
 |-4*------------------7/9~------7/9~----------------------------------|
 |---------------------------------------------------------------------| 
 |---------------------------------------------------------------------|
 
 Chorus: 
   A     A    A        D   B        E
  Ahumm-ahumm beh,buti nga!beh,buti nga!
     D               A        C                   G        A        D
  Ngayon ay boldstar na ako siguro'y tumutulo ang laway mo,beh buti nga!
  B        E       E                
  Beh,buti nga!beh,beh,beh,beh,buti... 
  A        D   B        E
  Beh,buti nga!beh,buti nga!
     D               A        C                   G     A        D
  Ngayon ay seksi na ako siguro'y tumutulo ang laway mo,beh buti nga!
  B        E       E                A
  Beh,buti nga!beh,beh,beh,beh,buti nga!
 Coda:
  A        D   B        E      D              A
  Beh,buti nga!beh,buti nga!ngayon ay bigtime na kami
      C                 G
  At nariyan ka pa sa isang tabi
  A        D   B        E       E                A
  Beh,buti nga!beh,buti nga!beh,beh,beh,beh,buti nga!
 Outro:
  E        A
  Beh,buti nga!
  E        A
  Beh,buti nga!
  E        A
  Beh,buti nga!
  E        A
  Beh,buti nga!
 
  Just use power chords alltroughout the song!!
  Beh buti nga by Parokya ni Edgar,tribute to Hotdogs!!

 ==========================================================================
  













 


 





Comments


Popular Parokya Ni Edgar tabs & chords
Wag Mo Na Sana 2 Bass Tabs
Buloy 1 Chords
Olops Chords
Sampip 4 Chords
Tamad Si Santa Claus 1 Chords
Chikinini 1 Tabs
Kailan Pa Tabs
Pangarap Lang Kita 9 Tabs
Ikay Aking Mahal Ukulele
Pedro Basura Man Ukulele


Song lyrics



↑ Back to top | Tablatures and chords are parodies/interpretations of the original songs. You may use it for private study, scholarship, research or language learning purposes only
© 2014 AZChords.com Contact us | Privacy policy | DMCA | Add/correct tabs | Request tabs | Top 50 tabs