» » »

Anti-matter Tabs (ver.1)

Artists:  A B C D E F G H I J K L M N O P Q R S T U V W X Y Z # 

Anti-matter Tabs (ver.1)

Parokya Ni Edgar
Rating:
5/5 (2 votes)
Tabs too difficult? Try these video lessons and learn fast.
                Legends
x=palm muted
p=pull off
\=slide
~=vibrato or let ring
h=hammer
r=release to


First Solo

|-----------------------------|
|--------------5--------------|
|--5-7-5-7-5------------------|
|-----------------------------|
|-----------------------------|
|-----------------------------|


|-----------------------------|
|-6p5--6--6\8~~~--------------|
|-----------------------------|
|-----------------------------|
|-----------------------------|
|-----------------------------|


|-----------------------------|
|--6-5------------------------|
|------7-5--4h5~~-------------|
|-----------------------------|
|-----------------------------|
|-----------------------------|


|--------5-5------------------|
|-5-6-8------8--6-5-----------|
|-----------------------------|
|-----------------------------|
|-----------------------------|
|-----------------------------|


|-----------------------------|
|-5-8-8--6-5------------------|
|--------------7--------------|
|-----------------------------|
|-----------------------------|
|-----------------------------|


|-----------------------------|
|-5-5h6-----------------------|
|---------7--5---4h5----------|
|-----------------------------|
|-----------------------------|
|-----------------------------|

2nd solo

|-----------------------------|
|-----------------------------|
|------------5----------------|
|-5-7-5-7-5----7p5------------|
|-----------------------------|
|-----------------------------|


|-----------------------------|
|-----------------------------|
|-------7-7--4----------------|
|--7p5----------5-------------|
|-----------------------------|
|-----------------------------|


|-----------------------------|
|-----------------------------|
|------7------7---------------|
|-7-5----7-5------------------|
|-----------------------------|
|-----------------------------|


|-----------------------------|
|------5-5--------------------|
|-----------7--5--------------|
|--7-5------------------------|
|-----------------------------|
|-----------------------------|


|--------5--------------------|
|-x-x-x----8--6p5-------------|
|-------------------7---------|
|-----------------------------|
|-----------------------------|
|-----------------------------|


|-----------------------------|
|-x-x-x--8p6p5------5-6-5-----|
|----------------0h7----------|
|-----------------------------|
|-----------------------------|
|-----------------------------|


|-----------------------------|
|-----5--6-5------------------|
|-5-7---------7--5p4h5~~~-----|
|-----------------------------|
|-----------------------------|
|-----------------------------|


|-----------------------------|
|------5--6----8---6-5--------|
|-5-7-------7----7------------|
|-----------------------------|
|-----------------------------|
|-----------------------------|


|-----------------------------|
|---6---5---------------------|
|-7---7---7---4h5~~~~---------|
|-----------------------------|
|-----------------------------|
|-----------------------------|


|--------5-5------------------|
|-5-6-8------8-6-5------------|
|-----------------------------|
|-----------------------------|
|-----------------------------|
|-----------------------------|


|-----------------------------|
|-5-8-8-6-5-------------------|
|-------------7---------------|
|-----------------------------|
|-----------------------------|
|-----------------------------|


|-----------------------------|
|---6---5---------------------|
|-7---7---7--4h5~~~-----------|
|-----------------------------|
|-----------------------------|
|-----------------------------|


|-----------------------------|
|----------5h6--6b-r5---------|
|-5-5p4h6---------------------|
|-----------------------------|
|-----------------------------|
|-----------------------------|


|-----------------------------|
|------5-6-5------------------|
|-5-7---------7-5-------------|
|-----------------------------|
|-----------------------------|
|-----------------------------|


|-----------------------------|
|-----------------------------|
|--7b--r4-5~~~----------------|
|-----------------------------|
|-----------------------------|
|-----------------------------|


|---------8-------------------|
|---8-10----10--8-------------|
|-9------------------9--------|
|-----------------------------|
|-----------------------------|
|-----------------------------|


|-15h17-15h17-----------------|
|---------------19-17-15------|
|-----------------------------|
|-----------------------------|
|-----------------------------|
|-----------------------------|


|-----------------------------|
|--6-5------6-5---------------|
|-------7-5------7-5-4h5------|
|-----------------------------|
|-----------------------------|
|-----------------------------|

|---------8-------------------|
|---8-10----10--8-------------|
|-9------------------9--------|
|-----------------------------|
|-----------------------------|
|-----------------------------|

|-15h17-15h17-----------------|
|---------------19-17-15------|
|-----------------------------|
|-----------------------------|
|-----------------------------|
|-----------------------------|

|-------7-8--10-8-7-----7h8~~~~~~~----|
|-8-10---------------10---------------|
|-------------------------------------|
|-------------------------------------|
|-------------------------------------|
|-------------------------------------|
            
Tabs too difficult? Try these video lessons and learn fast.


comments powered by Disqus
↑ Back to top | Tablatures and chords are parodies/interpretations of the original songs. You may use it for private study, scholarship, research or language learning purposes only