>
 >
Alumni Homecoming 1

Alumni Homecoming 1 Bass Tabs

Parokya Ni Edgar - Alumni Homecoming 1 chords, tabs, tablatures, lyrics

Guitar lessons | Add/correct | Request | Top 50 tabs Artists:  A B C D E F G H I J K L M N O P Q R S T U V W X Y Z 0-9

Alumni Homecoming 1 Bass Tabs – Parokya Ni Edgar

CD, Sheet music, Poster

Do you like Alumni Homecoming 1? Share with your friends now
Bass TabsBass Tabs v2Bass Tabs v3ChordsChords v2Chords v3TabsUkulele
Alumni Homecoming
Parokya ni Edgar

Verse1 "napaibig mo ako"
G|-----------------|-----------------|
D|-----------------|-----------------|
A|-----------------|-5-5-5-5-5-5-5-5-|
E|-----------------|-----------------|

Verse2(3x)
G|----------------11p9-9------13p11-11------9p7-7-|
D|-----7p5-5--------------------------------------|
A|------------7-7---------9-9-----------5-5-------|
E|-5-5--------------------------------------------|

G|----------------11p9-9------13p11-11----------------|
D|-----7p5-5-----------------------------6p4-4--------|
A|------------7-7---------9-9-------------------5p4-5-|
E|-5-5------------------------------------------------|

Chorus1 
G|-------------------------------------------------------------------|
D|-------------------------------------------------------------------|
A|-----------------7-7-7-7-7-7-7-7--9-9-9-9-9-9-9-9--5-5-5-5-5-5-5-5-|
E|-5-5-5-5-5-5-5-5---------------------------------------------------|

G|---------------------------------------------------------|
D|---------------------------------------------------------|
A|-----------------7-7-7-7-7-7-7-7--9------5-5-5-5-5-5-5-5-|
E|-5-5-5-5-5-5-5-5-----------------------------------------|

Instrumental 
G|-------------------------------------------------------------------|
D|-------------------------------------------------------------------|
A|-----------------7-7-7-7-7-7-7-7--9-9-9-9-9-9-9-9--5-5-5-5-5-5-5-5-|
E|-5-5-5-5-5-5-5-5---------------------------------------------------| 2x

Verse3
G|----------------11p9-9------13p11-11--11p9-9---9p7-7-|
D|-----7p5-5-------------------------------------------|
A|------------7-7---------9-9--------------------------|
E|-5-5-------------------------------------------------|

G|----------------11p9-9------11----11p9--9p7--7p6-7-|
D|-----7p5-5-----------------------------------------|
A|------------7-7---------9-9-----5------------------|
E|-5-5-----------------------------------------------|

G|----------------11p9-9------13p11-11---9--7---------------------|
D|-----7p5-5----------------------------------9p7-7---------------|
A|------------7-7---------9-9-----------------------9p7-7---7p5-5-|
E|-5-5------------------------------------------------------------|

G|-----------------------------------------------------|
D|-----------------------------------------------------|
A|--------7-7---------9-9-9-9-9-9-9-9--5-5-5-5-5-5-5-5-|
E|-5-5-----------0-2-----------------------------------|

G|-------------------------------------------------------------------|
D|-------------------------------------------------------------------|
A|-----------------7-7-7-7-7-7-7-7--9-9-9-9-9-9-9-9--5-5-5-5-5-5-5-5-|
E|-5-5-5-5-5-5-5-5---------------------------------------------------|

G|------------------------------------------------------------------------|
D|--------------------------------------------------------------12-12-12\-|
A|-----------------7-7-7-7-7-7-7-7--9-9-9-9-9-9-9-9--5-5-5-5-5/-----------|
E|-5-5-5-5-5-5-5-5--------------------------------------------------------|

Chorus2 
G|-------------------------------------------------------------------|
D|-------------------------------------------------------------------|
A|-----------------7-7-7-7-7-7-7-7--9-9-9-9-9-9-9-9--5-5-5-5-5-5-5-5-|
E|-5-5-5-5-5-5-5-5---------------------------------------------------|2x

Adlib 
G|-------------------------------------------------------------------|
D|-------------------------------------------------------------------|
A|-----------------7-7-7-7-7-7-7-7--9-9-9-9-9-9-9-9--5-5-5-5-5-5-5-5-|
E|-5-5-5-5-5-5-5-5---------------------------------------------------|3x

G|-------------------------------------------7--7--7-|
D|---------------------------------------------------|
A|-----------------7-7-7-7-7-7-7-7--9--9--9----------|
E|-5-5-5-5-5-5-5-5-----------------------------------|

Verse4 
G|----------------------------|------------------------|
D|----------------------------|------------------------|
A|-------7-7---9-9---5-5--x-x-|------7-7---x-9-9---5-5-|
E|-5-5------------------------|-5-5--------------------|

G|-----------------13p11-11------9p7-7-|
D|-------------------------------------|
A|-------7-7---9-9-----------5-5-------|
E|-5-5---------------------------------|

G|----------------11p9-9------13p11-11----------------|
D|-----7p5-5-----------------------------6p4-4--------|
A|------------7-7---------9-9-------------------5p4-5-|
E|-5-5------------------------------------------------|

G|-------------------------------------------------------------------|
D|-------------------------------------------------------------------|
A|-----------------7-7-7-7-7-7-7-7--9-9-9-9-9-9-9-9--5-5-5-5-5-5-5-5-|
E|-5-5-5-5-5-5-5-5---------------------------------------------------|

G|------------------------------------------------------------------------|
D|--------------------------------------------------------------12-12-12\-|
A|-----------------7-7-7-7-7-7-7-7--9-9-9-9-9-9-9-9--5-5-5-5-5/-----------|
E|-5-5-5-5-5-5-5-5--------------------------------------------------------|

Chorus3
G|-------------------------------------------------------------------|
D|-------------------------------------------------------------------|
A|-----------------7-7-7-7-7-7-7-7--9-9-9-9-9-9-9-9--5-5-5-5-5-5-5-5-|
E|-5-5-5-5-5-5-5-5---------------------------------------------------|3x

G|--------------------------------------------------------|
D|--------------------------------------------------------|
A|-----------------7-7-7-7-7-7-7-7--9-----5-5-5-5-5-5-5-5-|
E|-5-5-5-5-5-5-5-5----------------------------------------|

G|-------------------------------------------------------------------|
D|-------------------------------------------------------------------|
A|-----------------7-7-7-7-7-7-7-7--9-9-9-9-9-9-9-9--5-5-5-5-5-5-5-5-|
E|-5-5-5-5-5-5-5-5---------------------------------------------------|3x

G|---------------------------------------------------------------|
D|---------------------------------------------------------------|
A|-----------------7-7-7-7-7-7-7-7--9-9-9-9-9-9-9-9-9/---5-5-5-5-|
E|-5-5-5-5-5-5-5-5-----------------------------------------------|





Comments


Popular Parokya Ni Edgar tabs & chords
Harana 5 Chords
Kailan Pa 1 Chords
Name Fun 1 Chords
Gitara Intro 1 Tabs
Nanjan Tabs
Pangarap Lang Kita 2 Tabs
Para Sayo Tabs
Ted Hannah (Intro) Tabs
Iisa Lang Ukulele
Yakinikitombo Ukulele


Song lyrics



↑ Back to top | Tablatures and chords are parodies/interpretations of the original songs. You may use it for private study, scholarship, research or language learning purposes only
© 2014 AZChords.com Contact us | Privacy policy | DMCA | Add/correct tabs | Request tabs | Top 50 tabs