» » »

Zastave Tabs (ver.2)

Artists:  A B C D E F G H I J K L M N O P Q R S T U V W X Y Z # 

Zastave Tabs (ver.2)

Parni Valjak
Rating:
5/5 (1 vote)

Hard to play? Try these video lessons and learn fast.
                                                   Am              C
 |       |       |       |        |       |       |       |        
|--------------------------------|--------------------------------|
|------------------------10p8----|--------10p8---------------5h6p5|
|----------------------------9p7-|9~----------9p7-9~------5-7-----|
|--------------------------------|--------------------------------|
|--------------------------------|--------------------------------|
|--------------------------------|--------------------------------|
  G               F                Am              C
 |       |       |       |        |       |       |       |        
|--------------------------------|--------------------------------|
|----------------------5---------|--------10p8---------------5h6p5|
|7~--------------7p5h7---7p5-----|------------9p7-9~------5-7-----|
|----------------------------7-5-|7~------------------------------|
|--------------------------------|--------------------------------|
|--------------------------------|--------------------------------|
  G
 |       |       |       |        |       |       |       |        
|--------------------------------|--------------------------------|
|--------------------8-----------|--------------------------------|
|7~--------------7/9-----7p5-----|--------------------------------|
|----------------------------7---|--------------------------------|
|--------------------------------|--------------------------------|
|--------------------------------|--------------------------------|


Am         C
Nogom pred nogu - tiho!
G     F
ja po vodi hodam
Am     C           G
svojim putem uspravno

Pljuga na pljugu
jedna na drugu
slazem - sate, dane, godine

Dm       C
Pa krenu bitke
      G
dodju porazi
Dm       C
kad nije film
   F           G
da pravda pobjedi
sjeti se


Kako smo mastat znali
i bogu dane krali
ispred "Zvecke" satima

Kovali planove
kuzili istine
svak' sa svojeg oblaka

Pa krenu bitke
dodju porazi
ti znas da nije lako
isti ostati

     C    G    F         G
Moje zastave - uvijek su iste boje
C         G          F
nad njima ljubav caruje

moja zastave - nikad na pola koplja
ljubav se ne predaje

Nogom pred nogu - tiho!
ja na zici plesem
zatvorenih ociju

Pljuga na pljugu
jedna na drugu
slazem - sate, dane, godine

Sad neki novi klinci dolaze
a sve se teze prave rijeci nalaze
            
Hard to play? Try these video lessons and learn fast. | Correct




comments powered by Disqus
↑ Back to top | Tablatures and chords are parodies/interpretations of the original songs. You may use it for private study, scholarship, research or language learning purposes only