>
 >
Vrijeme Ljubavi

Vrijeme Ljubavi Guitar Tabs

Parni Valjak - Vrijeme Ljubavi chords, tabs, tablatures, lyrics

Guitar lessons | Add/correct | Request | Top 50 tabs Artists:  A B C D E F G H I J K L M N O P Q R S T U V W X Y Z 0-9

Vrijeme Ljubavi Guitar Tabs – Parni Valjak

CD, Sheet music, Poster

Do you like Vrijeme Ljubavi? Share with your friends now
Tabs
Parni Valjak
VRIJEME LJUBAVI


***VERZIJA 1***

Am            G          Am
Tko te salje da me probudis
              G         C
Tko te salje da me podsjetis
 Dm             Am    Dm         C   E   F  
Sto je bilo vise nije vrijeme prolazi
              C         Dm      E
Sto da radim kada zelim da zaboravim
   
Jezik zmije u ruci jabuka
Cije grijehe covjek ispasta
Hajde reci svoje ime kazna ili nagrada
Dio kriza koji nosim tebi pripada
   
F             G         C          Am
Ako si od crnog vraga,sto je tako tako slatko
F                  G     C        E      F  
Ako si od samog Boga,zasto traje tako kratko
                 E       Am
Zasto prolazi vrijeme ljubavi
   

Tko te salje....
Ako si...





***VERZIJA 2***

ALBUM   : LIVE IN ZeKaeM (bez struje)


    Em        G   H7  Em      Am  H7
E|-------------------------------------|
B|------0-----------------0-----1---4--|
G|----0---0-----4---2---0---0---2---2--|     2X INTRO
D|--2-------2/5---4---2-------2---4----|
A|-------------------------------------|
E|-------------------------------------|


   Em               H7              Em        G   H7  Em      Am  H7  
E|---------------------------------------------------------------------|
B|------0-------0-------4-------4-------0-----------------0-----1---4--|
G|----0---0---0---0---2---2---2---2---0---0-----4---2---0---0---2---2--|
D|--2-------2-------4-------4-------2-------2/5---4---2-------2---4----|
A|---------------------------------------------------------------------|
E|---------------------------------------------------------------------|
        Tko te salje    da me probudis
        Jezik zmije   u ruci jabuka

    Em              Amol    H7      Em        G   H7  
E|-----------------------------------------------------|
B|------0-------0-------1-------4-------0--------------|
G|----0---0---0---0---2---2---2---2---0---0-----4---2--|
D|--2-------2-------2-------4-------2-------2/5---4----|
A|-----------------------------------------------------|
E|-----------------------------------------------------|
        Tko te salje    da me podsjetis
        Cije grijehe    covjek ispasta


    Am              Em              Am      D       G       H7   
E|------------------------------------------------------------------|
B|------1-------1-------0-------0-------1-------3-------3-------4---|
G|----2---2---2---2---0---0---0---0---2---2---2---2---4---4---2---2-|
D|--2-------2-------2-------2-------2-------0-------5-------4-------|
A|------------------------------------------------------------------|
E|------------------------------------------------------------------|
        Sto je bilo     vise nije       vrijeme prolazi
        Hajde reci      svoje ime   kazna ili nagrada


   Am              Em              C               H7          
E|---------------------------------------------------------2--|
B|-----1-------1-------0-------0-----------1---------------4--|
G|---2---2---2---2---0---0---0---0-----0-----0---1-----2---2--|
D|-2-------2-------2-------2---------2---2-----2-----4---4----|
A|---------------------------------3---------------2----------|
E|------------------------------------------------------------|
       Sto da radim    kada zelim      da zaboravim
       Dio kriza       koji nosim      tebi pripada


    H7
E|-----------11--|
B|----7-10-7-12--|
G|-----------11--|
D|--9------------|
A|---------------|
E|---------------|

  C         D        
   Ako si od crnog vraga 
  H7          Em
   Sto je tako tako slatko
  C         D    
   Ako si od samog Boga
  H7           G D  Em D   
   Zasto traje tako kratko
  C           H7
   Zasto prolazi
   
  H7            Em 
   Vrijeme ljubavi
                       





Comments


Popular Parni Valjak tabs & chords
Dodji Chords
Molitva Chords
Prokleta Nedelja 1 Chords
Ugasi Me Chords
Zastave Tabs
Dodji Ukulele
I Sve Jos Mirise Na Nju Ukulele
Jesen U Meni Ukulele
Suzama Se Vatre Ne Gase Ukulele
Sve Jos Mirise Na Nju Ukulele


Song lyrics



↑ Back to top | Tablatures and chords are parodies/interpretations of the original songs. You may use it for private study, scholarship, research or language learning purposes only
© 2014 AZChords.com Contact us | Privacy policy | DMCA | Add/correct tabs | Request tabs | Top 50 tabs