» » »

Rumpofsteelskin Bass tabs (ver.1)

Artists:  A B C D E F G H I J K L M N O P Q R S T U V W X Y Z # 

Rumpofsteelskin Bass tabs (ver.1)

Parliament
Rating:
0/5 (0 votes)

Hard to play? Try these video lessons and learn fast.
                   funk has been known to incite riots.
         proceed with caution.

Intro
G|-3p2------------------------------------ 
D|----3-3h5-3-5-3-5-----------------------
A|------------------1-2-3-4-5-6-7-8--9-10-
E|----------------------------------------
  
G|---12--10------------------------
D|-12--12-----3-5------------------
A|-----------5-5--2-3-4-5-6-7--8-9-
E|---------------------------------
 
Main Riff
G|--------------------------------
D|--7-8-7-5----------7-8-7-5------
A|---------7-5-7-8----------7-5-7-
E|-3--------------3---------------
there are many variations to this,
but they're pretty easy to figure out 
 
Bridge
G|------------------5-5h7-10-7-(\10)-
D|-----------3-5-5h7-----------------
A|------3-5-7------------------------
E|-3-5-7-----------------------------
 
G|-------------------5-------
D|------------3-5-5h7--8-7-8-
A|------3-5-7----------------
E|-3-5-7---------------------
 
G|-------------------5-7-15-14-
D|------------3-5-5h7----------
A|------3-5-7------------------
E|-3-5-7-----------------------
 
Slap Interlude 1/Outro
G|----------------3-3-------3-3- 
D|-3-3h5-3-5--3-5-----3h5-5-----
A|------------------------------
E|------------------------------
 
Slap Interlude 2
G|---12--10--10-10-9-10--9-10-10-10-10-9-10----
D|-12--12--------------------------------------
A|------------------------------------------10-
E|---------------------------------------------
            
Hard to play? Try these video lessons and learn fast. | Correct




comments powered by Disqus
↑ Back to top | Tablatures and chords are parodies/interpretations of the original songs. You may use it for private study, scholarship, research or language learning purposes only