» » »

Parliament, Mothership Connection Tabs (ver.1)

Artists:  A B C D E F G H I J K L M N O P Q R S T U V W X Y Z # 

Mothership Connection Tabs (ver.1)

Parliament Tabs
Rating:
0/5 (0 votes)
Hard to play? Try these video lessons and learn fast.
                
This is a very nice and funky song from their 1976 
album "Mothership Connection".

Main Riff:

-||--------------------------------------------------------||-
-||--------------------------------------------------------||-
-||-*--11--9--8----8--6----6--8-------6--8----6-6--6--8--*-||-
-||-*------------------------------8---------------------*-||-
-||--------------------------------------------------------||-
-||--------------------------------------------------------||-

Variation:

-||---------------------------------------------------------------||-
-||---------------------------------------------------------------||-
-||----11--9--8----8--6--x-6-x-6-x6--8-------6--8----6-6--6--8----||-
-||---------------------------------------8-----------------------||-
-||---------------------------------------------------------------||-
-||---------------------------------------------------------------||-
            

comments powered by Disqus
↑ Back to top | Parliament Tabs for Mothership Connection. Lyrics for acoustic guitar and electric guitar. Tablatures and chords are parodies/interpretations of the original songs. You may use it for private study, scholarship, research or language learning purposes only