>
 >
Snake Oil And Holy Water

Snake Oil And Holy Water Guitar Tabs

Parkway Drive - Snake Oil And Holy Water chords, tabs, tablatures, lyrics

Guitar lessons | Add/correct | Request | Top 50 tabs Artists:  A B C D E F G H I J K L M N O P Q R S T U V W X Y Z 0-9

Snake Oil And Holy Water Guitar Tabs – Parkway Drive

CD, Sheet music, Poster

Do you like Snake Oil And Holy Water? Share with your friends now
Tabs
Tuning: Drop B


Both Guitars  0:02              
C#||---------------------------|----------------------------|
G#||---------------------------|----------------------------|                            
E ||---------------------------|----------------------------|
B ||---------------------------|----------------------------|
F#||---------------------------|----------------------------|
B ||--0--0--0--12~------0-0-0--|--0--0--0-0-0--0--0--0-0-0--|
                        PMPMPM    PM PM PMPMPM PM PM PMPMPM  

---------------------------|----------------------------|
---------------------------|----------------------------|   
---------------------------|----------------------------|
---------------------------|----------------------------|
---------------------------|-----12--8-----10--8--7--8--|
--0--0--0--12~------0-0-0--|--8---------8---------------|
                    PMPMPM 
                              
---------------------------|----------------------------|
---------------------------|----------------------------|               
---------------------------|----------------------------|
---------------------------|----------------------------|
---------------------------|----------------------------|
--0--0--0--12~------0-0-0--|--0--0--0-0-0--0--0--0-0-0--|
                    PMPMPM    PM PM PMPMPM PM PM PMPMPM  

------------- -------------|------------------------------|
---------------------------|------------------------------|               
---------------------------|------------------------------|
---------------------------|------------------------------|
---------------------------|------------------------------|
--0--0--0--12~------0-0-0--|-0--15--15--15--0--14--14--14-|
                    PMPMPM 
                                
--------------------------|----------------------------|
--------------------------|----------------------------|              
--------------------------|----------------------------|
--------------------------|----------------------------|
--------------------------|----------------------------|
--0--0--0--12~-----0-0-0--|--0--0--0-0-0--0--0--0-0-0--|
                   PMPMPM    PM PM PMPMPM PM PM PMPMPM 
 
------------- -------------|----------------------------|
---------------------------|----------------------------|               
---------------------------|----------------------------|
---------------------------|----------------------------|
---------------------------|-----12--8-----10--8--7--8--|
--0--0--0--12~------0-0-0--|--8---------8---------------|
                    PMPMPM  

                            2nd Guitar Harmony
                           |---------------------------|
                           |---------------------------|
                           |---------------------------|
                           |-----10--7-----8--7--5--7--|
                           |--5---------5--------------|
                           |---------------------------|

---------------------------|----------------------------|
---------------------------|----------------------------|               
---------------------------|----------------------------|
---------------------------|----------------------------|
---------------------------|----------------------------|
--0--0--0--12~-------0--0--|--0--12~------0--0--12~-----|
                    

---------------------------|--------------------------------|
---------------------------|--------------------------------|               
---------------------------|--------------------------------|
---------------------------|--------------------------------|
---------------------------|--------------------------------|
--0--0--0--12~-------0--0--|--0--15--15--15--0--14--14--14--|

                             
                            2nd Guitar Harmony
                           |--------------------------------|
                           |--------------------------------|
                           |--------------------------------|
                           |--------------------------------|
                           |-----12--12--12-----10--10--10--|
                           |--0--------------0--------------|









Both Guitar  0:21
---------------------------|--------------------------|
---------------------------|--------------------------|         
---------------------------|--------------------------|
---------------------------|--------------------------|
---------------------------|--------------------------|
--0--0--0--12--0--0--0--0--|--0--0--0--0--0--0--0--0--|
     PM PM     PM PM PM PM       PM PM    PM PM PM PM       

---------------------------|--------------------------------|
---------------------------|--------------------------------|   
---------------------------|--------------------------------|
---------------------------|--------------------------------|
---------------------------|--------------------------------|
---0--0--0--0--0--0--0--0--|--0--15--15--15--0--14--14--14--|
      PM PM    PM PM PM PM  

                            2nd Guitar Harmony
                           |--------------------------------|
                           |--------------------------------|
                           |--------------------------------|
                           |--------------------------------|
                           |-----12--12--12-----10--10--10--|
                           |--0--------------0--------------|



---------------------------|--------------------------|
---------------------------|--------------------------|         
---------------------------|--------------------------|
---------------------------|--------------------------|
---------------------------|--------------------------|
--0--0--0--12--0--0--0--0--|--0--0--0--0--0--0--0--0--|
     PM PM     PM PM PM PM       PM PM    PM PM PM PM       

--------------------------|-------------------------|   
--------------------------|-------------------------|   X2      
--------------------------|-------------------------|
--------------------------|----------------------7--|
--------------------------|-----7--8-------7--8-----|
--0--0--0--0--0--0--0--0--|--8----------8-----------|
     PM PM    PM PM PM PM  


                           Last time 2nd guitar does the harmony       
                          |----------------------------|
                          |----------------------------|
                          |----------------------------|
                          |--------------------------10|
                          |----10--12--------10--12----|
                          |12------------12------------|









Both Guitars  0:40
----------------------------------|----------------------------------|
----------------------------------|----------------------------------|  
----------------------------------|----------------------------------|
----------------------------------|----------------------------------|
------------------7-7-7-7-7-7-7-7-|------------------7-7-7-7-8-8-8-8-|
--3-3-3-3-3-3-3-3-----------------|--3-3-3-3-3-3-3-3-----------------|

----------------------------------|----------------------------------|
----------------------------------|----------------------------------|  
----------------------------------|----------------------------------|
----------------------------------|----------------------------------|
------------------7-7-7-7-7-7-7-7-|------------------7-7-7-7-3-3-3-3-|
--0-0-0-0-0-0-0-0-----------------|--0-0-0-0-0-0-0-0-----------------|

--------------------------------------|--------------------------------------|
--------------------------------------|--------------------------------------|  
--------------------------------------|--------------------------------------|
--------------------------------------|--------------------------------------|
------------------7-7-7-7-12-12-12-12-|------------------7-7-7-7-12-12-12-12-|
--7-7-7-7-7-7-7-7---------------------|--7-7-7-7-7-7-7-7---------------------|

----------------------------------|----------------------------------|
----------------------------------|----------------------------------|  X2
----------------------------------|--5-5-5-5-4-4-4-4-0-0-0-0-2-2-2-2-|
----------------------------------|----------------------------------|
------------------3-3-3-3-5-5-5-5-|----------------------------------|
--5-5-5-5-5-5-5-5-----------------|----------------------------------|










Both Guitars  1:00
-------------------------------|-------------------------------|
-------------------------------|-------------------------------|                
-------------------------------|-------------------------------|
-------------------------------|-------------------------------|
-------------------------------|-------------------------------|
--7p--0--8p--0--10p--0--7p--0--|--8p--0--10--12--7p--0--8p--0--|

-------------------------------|-------------------------------|
-------------------------------|-------------------------------|
-------------------------------|-------------------------------|
-------------------------------|-------------------------------|
-------------------------------|-------------------------------|
--10p--0--7p--0--8p--0--10p--0-|--0----------------------------|








Both Guitars  1:04
---------------------------|----------------------------|
---------------------------|----------------------------|               
---------------------------|----------------------------|
---------------------------|----------------------------|
---------------------------|----------------------------|
--0--0--0--12~------0-0-0--|--0--0--0-0-0--0--0--0-0-0--|
                    PMPMPM    PM PM PMPMPM PM PM PMPMPM  

------------- -------------|----------------------------|
---------------------------|----------------------------|               
---------------------------|----------------------------|
---------------------------|----------------------------|
---------------------------|-----12--8-----10--8--7--8--|
--0--0--0--12~------0-0-0--|--8---------8---------------|
                    PMPMPM  

                            2nd Guitar Harmony
                           |----------------------------|
                           |----------------------------|
                           |----------------------------|
                           |------10--7-----8--7--5--7--|
                           |--5----------5--------------|
                           |----------------------------|


---------------------------|----------------------------|
---------------------------|----------------------------|               
---------------------------|----------------------------|
---------------------------|----------------------------|
---------------------------|----------------------------|
--0--0--0--12~------0-0-0--|--0--0--0-0-0--0--0--0-0-0--|
                    PMPMPM    PM PM PMPMPM PM PM PMPMPM  

------------- -------------|--------------------------------|
---------------------------|--------------------------------|   
---------------------------|--------------------------------|
---------------------------|--------------------------------|
---------------------------|--------------------------------|
--0--0--0--12~------0-0-0--|--0--15--15--15--0--14--14--14--|
                    PMPMPM  

                            2nd Guitar Harmony
                           |--------------------------------|
                           |--------------------------------|
                           |--------------------------------|
                           |--------------------------------|
                           |-----12--12--12-----10--10--10--|
                           |--0--------------0--------------|








Both Guitars  1:14

---------------------------|--------------------------|
---------------------------|--------------------------|         
---------------------------|--------------------------|
---------------------------|--------------------------|
---------------------------|--------------------------|
--0--0--0--12--0--0--0--0--|--0--0--0--0--0--0--0--0--|
     PM PM     PM PM PM PM       PM PM    PM PM PM PM     

--------------------------|--------------------------------|
--------------------------|--------------------------------|    
--------------------------|--------------------------------|
--------------------------|--------------------------------|
--------------------------|--------------------------------|
--0--0--0--0--0--0--0--0--|--0--15--15--15--0--14--14--14--|
     PM PM    PM PM PM PM                                   

                           2nd Guitar Harmony
                          |--------------------------------|
                          |--------------------------------|
                          |--------------------------------|
                          |--------------------------------|
                          |-----12--12--12-----10--10--10--|
                          |--0--------------0--------------|


--------------------------|--------------------------|
--------------------------|--------------------------|          
--------------------------|--------------------------|
--------------------------|--------------------------|
--------------------------|--------------------------|
--0--0--0--0--0--0--0--0--|--0--0--0--0--0--0--0--0--|
     PM PM    PM PM PM PM       PM PM    PM PM PM PM  

--------------------------|-------------------------|
--------------------------|-------------------------|   
--------------------------|-------------------------|
--------------------------|----------------------7--|
--------------------------|-----7--8-------7--8-----|
--0--0--0--0--0--0--0--0--|--8----------8-----------|
     PM PM    PM PM PM PM                            








Both Guitars  1:24
-----------------------------|----------------------------|
-----------------------------|----------------------------|             
-----------------------------|----------------------------|
-----------------------------|----------------------------|
-----------------------------|----------------------------|
--0-0-0-0-0--12--0--0--0--0--|--0-0-0-0-0--0--0--0--0--0--|
  PMPMPMPMPM     PM PM PM PM    PMPMPMPMPM    PM PM PM PM  

----------------------------|--------------------------------|
----------------------------|--------------------------------|  
----------------------------|--------------------------------|
----------------------------|--------------------------------|
----------------------------|--------------------------------|
--0-0-0-0-0--0--0--0--0--0--|--0--15--15--15--0--14--14--14--|
  PMPMPMPMPM    PM PM PM PM                                   

                             2nd Guitar Harmony
                            |--------------------------------|
                            |--------------------------------|
                            |--------------------------------|
                            |--------------------------------|
                            |-----12--12--12-----10--10--10--|
                            |--0--------------0--------------|


-----------------------------|----------------------------|
-----------------------------|----------------------------|             
-----------------------------|----------------------------|
-----------------------------|----------------------------|
-----------------------------|----------------------------|
--0-0-0-0-0--12--0--0--0--0--|--0-0-0-0-0--0--0--0--0--0--|
  PMPMPMPMPM     PM PM PM PM    PMPMPMPMPM    PM PM PM PM  

----------------------------|-------------------------|
----------------------------|-------------------------|
----------------------------|-------------------------|
----------------------------|----------------------7--|
----------------------------|-----7--8-------7--8-----|
--0-0-0-0-0--0--0--0--0--0--|--8----------8-----------|
  PMPMPMPMPM    PM PM PM PM                                   








Both Guitars  1:34
----------------------------|-------------------------|
----------------------------|-------------------------|         
-----------10---------------|--10---------------------|
---------------------10-----|--10---------------------|
--8-------------------------|--10---------------------|
--8-------------------------|--10---------------------|


---------------------------|--------------------------|
---------------------------|--------------------------|         
-----------7---------------|-----------3--------------|
--------------------7------|--------------------7-----|
--0------------------------|--3-----------------------|
--0------------------------|--3-----------------------|
            
---------------------------|--------------------------|
---------------------------|--------------------------|         
-----------10--------------|--10----------------------|
---------------------10----|--10----------------------|
--8------------------------|--10----------------------|
--8------------------------|--10----------------------|

-------------------------------|-------------------------------|
-------------------------------|-------------------------------| X2
-------------------------------|-------------------------------|
-------------------------------|-------------------------------|
-------------------------------|-------------------------------|
--7p--0--8p--0--10p--0--7p--0--|--8p--0--10p--0--8p--0--7p--0--|



Last time play this. 
-------------------------------|-------------------------------|
-------------------------------|-------------------------------|
-------------------------------|-------------------------------|
-------------------------------|-------------------------------|
-------------------------------|-------------------------------|
--7p--0--8p--0--10p--0--7p--0--|--8p--0--10p--0--7p--0--8p--0--|

-------------------------------|
-------------------------------|
-------------------------------|
-------------------------------|
-------------------------------|
--10p--0--0--------------------|








Both Guitars  1:54
------------- --------------|----------------------------|
----------------------------|----------------------------|              
----------------------------|----------------------------|
----------------------------|----------------------------|
----------------------------|----------------------------|
--0--0--0--12~--------0--0--|--0--12~------0--0--12~-----|

----------------------------|----------------------------|
----------------------------|----------------------------|              
----------------------------|----------------------------|
----------------------------|----------------------------|
----------------------------|-----12--8-----10--8--7--8--|
--0--0--0--12~--------0--0--|--8---------8---------------|

----------------------------|----------------------------|
----------------------------|----------------------------|              
----------------------------|----------------------------|
----------------------------|----------------------------|
----------------------------|----------------------------|
--0--0--0--12~--------0--0--|--0--12~------0--0--12~-----|

----------------------------|--------------------------------|
----------------------------|--------------------------------|  
----------------------------|--------------------------------|
----------------------------|--------------------------------|
----------------------------|--------------------------------|
--0--0--0--12~--------0--0--|--0--15--15--15--0--14--14--14--|








Both Guitars  2:04
------------------------------|------------------------------|
------------------------------|------------------------------|          
------------------------------|------------------------------|
------------------------------|------------------------------|
--0-0-0--0-0-0--0-0-0--0-0-0--|--0-0-0--0-0-0--0-0-0--0-0-0--|
--0-0-0--0-0-0--0-0-0--0-0-0--|--0-0-0--0-0-0--0-0-0--0-0-0--|
  PMPMPM PMPMPM PMPMPM PMPMPM    PMPMPM PMPMPM PMPMPM PMPMPM  

------------------------------|----------------------------------|
------------------------------|----------------------------------|              
------------------------------|----------------------------------|
------------------------------|----------------------------------|
--0-0-0--0-0-0--0-0-0--0-0-0--|----------------------------------|
--0-0-0--0-0-0--0-0-0--0-0-0--|--17--13--13--13--16--12--12--12--|
  PMPMPM PMPMPM PMPMPM PMPMPM        PM  PM  PM      PM  PM  PM  

------------------------------|------------------------------|
------------------------------|------------------------------|          
------------------------------|------------------------------|
------------------------------|------------------------------|
--0-0-0--0-0-0--0-0-0--0-0-0--|--0-0-0--0-0-0--0-0-0--0-0-0--|
--0-0-0--0-0-0--0-0-0--0-0-0--|--0-0-0--0-0-0--0-0-0--0-0-0--|
  PMPMPM PMPMPM PMPMPM PMPMPM    PMPMPM PMPMPM PMPMPM PMPMPM  

------------------------------|-------------------------|
------------------------------|-------------------------|               
------------------------------|-------------------------|
------------------------------|----------------------7--|
--0-0-0--0-0-0--0-0-0--0-0-0--|-----7--8-------7--8-----|
--0-0-0--0-0-0--0-0-0--0-0-0--|--8----------8-----------|
  PMPMPM PMPMPM PMPMPM PMPMPM         

                               2nd Guitar Harmony
                              |----------------------------|
                              |----------------------------|
                              |----------------------------|
                              |--------------------------10|
                              |----10--12--------10--12----|
                              |12------------12------------|








Both Guitar  2:14                        
----------------------------------|----------------------------------|
----------------------------------|----------------------------------|  
----------------------------------|----------------------------------|
----------------------------------|----------------------------------|
------------------7-7-7-7-7-7-7-7-|------------------7-7-7-7-8-8-8-8-|
--3-3-3-3-3-3-3-3-----------------|--3-3-3-3-3-3-3-3-----------------|

----------------------------------|----------------------------------|
----------------------------------|----------------------------------|  
----------------------------------|----------------------------------|
----------------------------------|----------------------------------|
------------------7-7-7-7-7-7-7-7-|------------------7-7-7-7-3-3-3-3-|
--0-0-0-0-0-0-0-0-----------------|--0-0-0-0-0-0-0-0-----------------|

--------------------------------------|--------------------------------------|
--------------------------------------|--------------------------------------|  
--------------------------------------|--------------------------------------|
--------------------------------------|--------------------------------------|
------------------7-7-7-7-12-12-12-12-|------------------7-7-7-7-12-12-12-12-|
--7-7-7-7-7-7-7-7---------------------|--7-7-7-7-7-7-7-7---------------------|

----------------------------------|----------------------------------|
----------------------------------|----------------------------------|  X2
----------------------------------|--5-5-5-5-4-4-4-4-0-0-0-0-2-2-2-2-|
----------------------------------|----------------------------------|
------------------3-3-3-3-5-5-5-5-|----------------------------------|
--5-5-5-5-5-5-5-5-----------------|----------------------------------|



Last time 2nd Guitar ends with.
----------------------------------|----------------------------------|
----------------------------------|--5-5-5-5-3-3-3-3-0-0-0-0-1-1-1-1-|
--------------------------2-2-2-2-|----------------------------------|
----------------------------------|----------------------------------|
------------------3-3-3-3---------|----------------------------------|
--5-5-5-5-5-5-5-5-----------------|----------------------------------|








1st Guitar  2:33       
----------------------------------|----------------------------------|
----------------------------------|----------------------------------|  
----------------------------------|----------------------------------|
----------------------------------|----------------------------------|
------------------7-7-7-7-7-7-7-7-|------------------7-7-7-7-8-8-8-8-|
--3-3-3-3-3-3-3-3-----------------|--3-3-3-3-3-3-3-3-----------------|

----------------------------------|----------------------------------|
----------------------------------|------------------------------
----------------------------------|----------------------------------|
----------------------------------|----------------------------------|
------------------7-7-7-7-7-7-7-7-|------------------7-7-7-7-3-3-3-3-|
--0-0-0-0-0-0-0-0-----------------|--0-0-0-0-0-0-0-0-----------------|

--------------------------------------|--------------------------------------|
--------------------------------------|--------------------------------------|  
--------------------------------------|--------------------------------------|
--------------------------------------|--------------------------------------|
------------------7-7-7-7-12-12-12-12-|------------------7-7-7-7-12-12-12-12-|
--7-7-7-7-7-7-7-7---------------------|--7-7-7-7-7-7-7-7---------------------|

----------------------------------|----------------------------------|
----------------------------------|----------------------------------|  X2
----------------------------------|--5-5-5-5-4-4-4-4-0-0-0-0-2-2-2-2-|
----------------------------------|----------------------------------|
------------------3-3-3-3-5-5-5-5-|----------------------------------|
--5-5-5-5-5-5-5-5-----------------|----------------------------------|







2nd Guitar  2:33
----------------------------------|----------------------------------|
----------------------------------|----------------------------------|  
------------------4-4-4-4-4-4-4-4-|------------------4-4-4-4-5-5-5-5-|
----------------------------------|----------------------------------|
----------------------------------|----------------------------------|
--3-3-3-3-3-3-3-3-----------------|--3-3-3-3-3-3-3-3-----------------|

----------------------------------|----------------------------------|
----------------------------------|----------------------------------|  
------------------4-4-4-4-4-4-4-4-|------------------4-4-4-4-0-0-0-0-|
----------------------------------|----------------------------------|
----------------------------------|----------------------------------|
--0-0-0-0-0-0-0-0-----------------|--0-0-0-0-0-0-0-0-----------------|

----------------------------------|----------------------------------|
----------------------------------|----------------------------------|  
------------------4-4-4-4-5-5-5-5-|------------------4-4-4-4-5-5-5-5-|
----------------------------------|----------------------------------|
----------------------------------|----------------------------------|
--7-7-7-7-7-7-7-7-----------------|--7-7-7-7-7-7-7-7-----------------|

----------------------------------|----------------------------------|
----------------------------------|--5-5-5-5-3-3-3-3-0-0-0-0-1-1-1-1-|
------------------4-4-4-4-5-5-5-5-|----------------------------------|
----------------------------------|----------------------------------|
----------------------------------|----------------------------------|
--5-5-5-5-5-5-5-5-----------------|----------------------------------|








Both Guitar  2:43                   
-------------------------------|-------------------------------|
-------------------------------|-------------------------------|               
-------------------------------|-------------------------------|
-------------------------------|-------------------------------|
-------------------------------|-------------------------------|
--7p--0--8p--0--10p--0--7p--0--|--8p--0--10p--0--7p--0--8p--0--|

-----------------------------||
-----------------------------||
-----------------------------||
-----------------------------||
-----------------------------||
--10p--0--7p--0--7p--0--0----||






Tablature Legend
----------------
PM - palm mute
~ Vibrato
b - bend
L - tied note
x - dead note
g - grace note
(n) - ghost note
> - accentuded note
PH - pitch harmonic
h - hammer on
p - pull off





Comments


Popular Parkway Drive tabs & chords
Alone Intro Tabs
Boneyards Tabs
Carrion 2 Tabs
Dead Man's Chest Tabs
Idols And Anchors 2 Tabs
Pandora 1 Tabs
Pandora 2 Tabs
Pandora 5 Tabs
Youre Over Tabs
Youre Over 1 Tabs


Song lyrics



↑ Back to top | Tablatures and chords are parodies/interpretations of the original songs. You may use it for private study, scholarship, research or language learning purposes only
© 2014 AZChords.com Contact us | Privacy policy | DMCA | Add/correct tabs | Request tabs | Top 50 tabs