>
 >
Idols And Anchors 5

Idols And Anchors 5 Guitar Tabs

Parkway Drive - Idols And Anchors 5 chords, tabs, tablatures, lyrics

Guitar lessons | Add/correct | Request | Top 50 tabs Artists:  A B C D E F G H I J K L M N O P Q R S T U V W X Y Z 0-9

Idols And Anchors 5 Guitar Tabs – Parkway Drive

CD, Sheet music, Poster

Do you like Idols And Anchors 5? Share with your friends now
TabsTabs v2Tabs v3Tabs v4Tabs v5Tabs v6
                        SOLO TO IDOLS AND ANCHORS


I couldn't find a tab on here that had this solo right, so i just listened to it
carefully and tabbed it to the correct tablature, hope you guys ENJOY!

                                 DROP B

                             (B-F#-B-E-G#-C#)

C#--------------------------------------------------------------------------|
G#--------------------------------------------------------15-17-17b~-17-----|
E-17-----15------14------12------14--12h14p12----12h14~---------------------|
B---1515----1515----1515----1515--------------15----------------------------|
F#--------------------------------------------------------------------------|
B---------------------------------------------------------------------------|

      T          T          T
C#-(17p13)----(15p12)----(13p10)----------13p12-----------------------------|
G#----x8--------x4--------x4-------13h15---------13h15----------------------|
E------------------------------------------------------12~------------------|
B---------------------------------------------------------------------------|
F#--------------------------------------------------------------------------|
B---------------------------------------------------------------------------|


C#---------------------------------5-12-8--------------------13-8-----------|
G#---T--------T--------T---------5--------10--------------10------10--------|
E-(14p10)---(14p9)---(12p7)--7-0-------------10--------10------------10-----|
B---------------------------------------------------12----------------------|
F#-----------------------------------------------13-------------------------|
B---------------------------------------------------------------------------|


C#-17-13-------17-13-------15-13-------15b~-15~--13-15-12b~-12---------------|
G#-------17-13-------17-13-------15-13---------------------------------------|
E----------------------------------------------------------------------------|
B----------------------------------------------------------------------------|
F#---------------------------------------------------------------------------|
B----------------------------------------------------------------------------|


C#-20----------20----------17-15--------------------------------------------|
F#----18-17-------18-17----------18-17-17h18p17-13--10~--8~--5b~-5~---------|
E-----------17----------17--------------------------------------------------|
B---------------------------------------------------------------------------|
F#--------------------------------------------------------------------------|
B---------------------------------------------------------------------------|


              Please rate and comment what you think on this tab





Comments


Popular Parkway Drive tabs & chords
Boneyards Bass Tabs
Blackout 1 Tabs
Emotional Breakdown Tabs
Hollow Man Intro Tabs
Karma Tabs
Pandora 2 Tabs
Picture Perfect Pathetic Tabs
Sleepwalker 4 Tabs
Smoke Em If You Got Em Tabs
Smoke Em If You Got Em 2 Tabs


Song lyrics



↑ Back to top | Tablatures and chords are parodies/interpretations of the original songs. You may use it for private study, scholarship, research or language learning purposes only
© 2014 AZChords.com Contact us | Privacy policy | DMCA | Add/correct tabs | Request tabs | Top 50 tabs