» » »

Gimme A D Bass tabs (ver.1)

Artists:  A B C D E F G H I J K L M N O P Q R S T U V W X Y Z # 

Gimme A D Bass tabs (ver.1)

Parkway Drive
Rating:
0/5 (0 votes)

Hard to play? Try these video lessons and learn fast.
                -----------------------------------------------------------------------
                       GIMME A D - Parkway Drive
-----------------------------------------------------------------------


Tuning: Drop B (BEADG and B F# B E)


Alrighty, before we get started, I tabbed this song for both 4 and 5
strings, the 4 string version being at the bottom. They are identical
in notes, I just put it there to make it easier for some people. There
was already a tab for this but there were many mistakes so I decided
to make one. Enjoy =)


Rest 4 bars

X 4

G|----------------|----------------|----------------|----------------|
D|----------------|----------------|----------------|----------------|
A|----------------|----------------|----------------|----------------|
E|----------------|----------------|0~--------------|----------------|
B|2~--------------|----------------|----------------|0~--------------|

X 4 (on the second one, staccato the 2)

G|----------------|----------------|----------------|----------------|
D|----------------|----------------|----------------|----------------|
A|----------------|----------------|----------------|----------------|
E|----------------|----------------|----------------|0~--------------|
B|2~--------------|----------------|3~--------------|----------------|

X 2

G|----------------|----------------|----------------|----------------|
D|----------------|----------------|----------------|----------------|
A|----------------|----------------|----------------|----------------|
E|----------------|----------------|----------------|0-0-0-0-0-0-0-0-|
B|2-2-2-2-2-2-2-2-|2-2-2-2-2-2-2-2-|3-3-3-3-3-3-3-3-|----------------|

X 3

G|----------------|----------------|----------------|----------------|
D|----------------|----------------|----------------|----------------|
A|----------------|----------------|----------------|0---2---454-2-4-|
E|----------------|----------------|----------------|----------------|
B|0-------00000000|0-------00000000|0-------00000000|--0---0---------|

X 1

G|----------------|----------------|----------------|----------------|
D|----------------|----------------|----------------|----------------|
A|----------------|----------------|----------------|----------------|
E|----------------|----------------|----------------|--------------0-|
B|0-------00000000|0-------00000000|0-------0000003-|--3-3-4---4-4---|

X 3

G|----------------|----------------|----------------|----------------|
D|----------------|----------------|----------------|----------------|
A|----------------|----------------|----------------|----------------|
E|--0-0-0-0-0-0---|----------------|----------------|--------------0-|
B|--------------3-|--3-3-3-3-3-3-1-|--1-1-1-1-1-1-3-|--3-3-3-3-3-3---|

X 1

G|----------------|----------------|----------------|----------------|
D|----------------|----------------|----------------|----------------|
A|----------------|----------------|----------------|----------------|
E|--0-0-0-0-0-0---|----------------|----------------|----------------|
B|--------------3-|--3-3-3-3-3-3-1-|--1-1-1-1-1-1-3-|--3-3-4---4-4-0~|

G|----------------|----------------|----------------|----------------|
D|----------------|----------------|----------------|----------------|
A|----------------|----------------|----------------|----------------|
E|----------------|----------------|----------------|----------------|
B|(0)-------------|----------------|0---------------|7---5-3-5---3-2-|

X 3

G|----------------|----------------|----------------|----------------|
D|----------------|----------------|----------------|----------------|
A|----------------|----------------|0---0-0-0-0-0-0-|----------------|
E|----------------|----------------|----------------|3---3-3-3-3-3-3-|
B|0---0-0-0-0-0-0-|0---0-0-0-0-0-0-|----------------|----------------|

X 1

G|----------------|----------------|----------------|----------------|
D|----------------|----------------|----------------|----------------|
A|----------------|----------------|0---0-0-0-0-0-0-|----------------|
E|----------------|----------------|----------------|----------------|
B|0---0-0-0-0-0-0-|0---0-0-0-0-0-0-|----------------|7---5-3-5---3-2-|

*TEMPO CHANGE*

Rest 2 bars

X 4

G|----------------|----------------|----------------|----------------|
D|----------------|----------------|----------------|----------------|
A|----------------|----------------|----------------|----------------|
E|3-3-3-3-3-3-3-3-|3-3-3-3-3-3-3-3-|1-1-1-1-1-1-1-1-|1-1-1-1-1-1-1-1-|
B|----------------|----------------|----------------|----------------|

X 3

G|----------------|----------------|----------------|----------------|
D|----------------|----------------|----------------|----------------|
A|----------------|----------------|----------------|----------------|
E|----------------|----------------|1-1-1-1-1-1-1-1-|1-1-1-1-1-1-1-1-|
B|3-3-3-3-3-3-3-3-|3-3-3-3-3-3-3-3-|----------------|----------------|

X 1

G|----------------|----------------|----------------|----------------|
D|----------------|----------------|----------------|----------------|
A|----------------|----------------|----------------|----------------|
E|----------------|----------------|1-1---------111-|1-1-------------|
B|3-3-3-3-3-3-3-3-|3-3-3-3-3-3-3-3-|----------------|----------------|

G|----------------|----------------|----------------|----------------|
D|----------------|----------------|----------------|----------------|
A|----------------|----------------|----------------|----------------|
E|3-3---------333-|3-3-------------|1-1---------111-|1-1-------------|
B|----------------|----------------|----------------|----------------|

G|----------------|----------------|
D|----------------|----------------|
A|----------------|----------------|
E|3-3---------333-|3-3-------------|
B|----------------|----------------|

X 1

G|----------------|----------------|----------------|----------------|
D|----------------|----------------|----------------|----------------|
A|----------------|----------------|----------------|----------------|
E|1111------------|1111------------|3333----3333----|3333------------|
B|----------------|----------------|----------------|----------------|

G|----------------|----------------|----------------|----------------|
D|----------------|----------------|----------------|----------------|
A|----------------|----------------|----------------|----------------|
E|1111------------|1111------------|3333------------|3333------------|
B|----------------|----------------|----------------|----------------|

X 2

G|----------------|----------------|----------------|----------------|
D|----------------|----------------|----------------|----------------|
A|----------------|----------------|----------------|0---2---454-2-4-|
E|----------------|----------------|----------------|----------------|
B|0-------00000000|0-------00000000|0-------00000000|--0---0---------|

Hold the last note.

  _    _
 / \  | \
|   | |_/
 \_/  | \ . . . . .

Same song, 4 string version. Because most hardcore bands, even though
they tune to B, use 4 string basses.


X 4

E |----------------|----------------|----------------|----------------|
B |----------------|----------------|----------------|----------------|
F#|----------------|----------------|----------------|----------------|
B |2~--------------|----------------|5~--------------|0~--------------|

X 4 (On the second note, staccato the 2)

E |----------------|----------------|----------------|----------------|
B |----------------|----------------|----------------|----------------|
F#|----------------|----------------|----------------|----------------|
B |2~--------------|----------------|3~--------------|5~--------------|

X 2

E |----------------|----------------|----------------|----------------|
B |----------------|----------------|----------------|----------------|
F#|----------------|----------------|----------------|----------------|
B |2-2-2-2-2-2-2-2-|2-2-2-2-2-2-2-2-|3-3-3-3-3-3-3-3-|5-5-5-5-5-5-5-5-|

X 3

E |----------------|----------------|----------------|----------------|
B |----------------|----------------|----------------|----0---232-0-2-|
F#|----------------|----------------|----------------|3---------------|
B |0-------00000000|0-------00000000|0-------00000000|--0---0---------|

X 1

E |----------------|----------------|----------------|----------------|
B |----------------|----------------|----------------|----------------|
F#|----------------|----------------|----------------|----------------|
B |0-------00000000|0-------00000000|0-------0000003-|--3-3-4---4-4-5-|

X 3

E |----------------|----------------|----------------|----------------|
B |----------------|----------------|----------------|----------------|
F#|----------------|----------------|----------------|----------------|
B |--5-5-5-5-5-5-3-|--3-3-3-3-3-3-1-|--1-1-1-1-1-1-3-|--3-3-3-3-3-3-5-|

X 1

E |----------------|----------------|----------------|----------------|
B |----------------|----------------|----------------|----------------|
F#|----------------|----------------|----------------|----------------|
B |--5-5-5-5-5-5-3-|--3-3-3-3-3-3-1-|--1-1-1-1-1-1-3-|--3-3-4---4-4-0~|

E |----------------|----------------|----------------|----------------|
B |----------------|----------------|----------------|----------------|
F#|----------------|----------------|----------------|----------------|
B |(0)-------------|----------------|0---------------|7---5-3-5---3-2-|

X 3

E |----------------|----------------|----------------|----------------|
B |----------------|----------------|----------------|----------------|
F#|----------------|----------------|3---3-3-3-3-3-3-|1---1-1-1-1-1-1-|
B |0---0-0-0-0-0-0-|0---0-0-0-0-0-0-|----------------|----------------|

X 1

E |----------------|----------------|----------------|----------------|
B |----------------|----------------|----------------|----------------|
F#|----------------|----------------|3---3-3-3-3-3-3-|----------------|
B |0---0-0-0-0-0-0-|0---0-0-0-0-0-0-|----------------|7---5-3-5---3-2-|

*TEMPO CHANGE*

Rest 2 bars

X 4

E |----------------|----------------|----------------|----------------|
B |----------------|----------------|----------------|----------------|
F#|----------------|----------------|----------------|----------------|
B |8-8-8-8-8-8-8-8-|8-8-8-8-8-8-8-8-|6-6-6-6-6-6-6-6-|6-6-6-6-6-6-6-6-|

X 3

E |----------------|----------------|----------------|----------------|
B |----------------|----------------|----------------|----------------|
F#|----------------|----------------|----------------|----------------|
B |3-3-3-3-3-3-3-3-|3-3-3-3-3-3-3-3-|6-6-6-6-6-6-6-6-|6-6-6-6-6-6-6-6-|

X 1

E |----------------|----------------|----------------|----------------|
B |----------------|----------------|----------------|----------------|
F#|----------------|----------------|----------------|----------------|
B |3-3-3-3-3-3-3-3-|3-3-3-3-3-3-3-3-|6-6---------666-|6-6-------------|

E |----------------|----------------|----------------|----------------|
B |----------------|----------------|----------------|----------------|
F#|----------------|----------------|----------------|----------------|
B |3-3---------333-|3-3-------------|6-6---------666-|6-6-------------|

E |----------------|----------------|
B |----------------|----------------|
F#|----------------|----------------|
B |3-3---------333-|3-3-------------|

X 1

E |----------------|----------------|----------------|----------------|
B |----------------|----------------|----------------|----------------|
F#|----------------|----------------|----------------|----------------|
B |6666------------|6666------------|8888----8888----|8888------------|

E |----------------|----------------|----------------|----------------|
B |----------------|----------------|----------------|----------------|
F#|----------------|----------------|----------------|----------------|
B |6666------------|6666------------|8888------------|8888------------|

X 2

E |----------------|----------------|----------------|----------------|
B |----------------|----------------|----------------|----0---232-0-2-|
F#|----------------|----------------|----------------|3---------------|
B |0-------00000000|0-------00000000|0-------00000000|--0---0---------|

Hold the last note.



| /  slide up
| \  slide down
| h  hammer-on
| p  pull-off
| ~  hold note
| +  harmonic
| x  mute note
=======================================================================
            
Hard to play? Try these video lessons and learn fast. | Correct




comments powered by Disqus
↑ Back to top | Tablatures and chords are parodies/interpretations of the original songs. You may use it for private study, scholarship, research or language learning purposes only