» » »

Flesh Bone And Weakness Tabs (ver.3)

Artists:  A B C D E F G H I J K L M N O P Q R S T U V W X Y Z # 

Flesh Bone And Weakness Tabs (ver.3)

Parkway Drive
Rating:
0/5 (0 votes)

Tabs too difficult? Try these video lessons and learn fast.
                (Intro)
                        Flesh, Bones and Weakness
                               Parkway Drive
                    From The 2004 Dont' Close Your Eyes)

Gtr 1 - Tuning Drop B - (B F# B E G# C#)

/ - SLIDE UP TO          h - HAMMER ON
\ - SLIDE DOWN TO        p - PULL OF
~ - VIBRATO              * - PALM MUTE
" - TREMOLO PICKING     [] - ARTIFICAL HARMONIC

0:00-0:13

C#|-------------------------------------------------------------------|
G#|-------------------------------------------------------------------|
E |-------------------------------------------------------------------|
B |-------------------------------------------------------------------|
F#|---0-0-0---0-0-0----3-3-3---0-0-0----1-1-1---1-1-1---0-0-0---1-1-1-|
B |-0-------0--------3-------0--------1-------1-------0-------0-------|

|--------------------------------------------------------------------|
|--------------------------------------------------------------------|
|--------------------------------------------------------------------|
|--------------------------------------------------------------------|
|---7-7-7---7-7-7---5-5-5---5-5-5---8-8-8---8-8-8---7-7-7--7---------|
|-5-------5-------5-------5-------7-------7-------7--------7\--------|


the rest comes up soon..
            
Tabs too difficult? Try these video lessons and learn fast.




comments powered by Disqus
↑ Back to top | Tablatures and chords are parodies/interpretations of the original songs. You may use it for private study, scholarship, research or language learning purposes only